Oops, an error
Loading. Please wait.

La Visión De Vuestras Almas tab

version 2
version 2

Whole song

Interactive

43 views 3 this week
no commentswrite comment
1 2 3 4 5
3 more votes to show rating
add to favorites
×
Save as Personal and add changes to this tab that will be seen only by you. Learn more ›
×
You can save this tab as Personal to edit and correct it or add notes. All changes will be seen only by you. Learn more »
launch autoscroll
font size
0
reset
how to read this tab
guitar tuner
edit
Autoscroll
slow
fast
+/-
esc
set tempo
stop
La vision de vuestras almas al pecar

INTRO:

e-------------------------|---------------------------|
B---8-----7-----5---------|-----8-----7-----5---------|
G-----7-----7-----7---5-7-|-7-----7-----7-----7---5-7-|
D-5-----5-----5-----5-----|-5-------5-----5-----5-----|
A-------------------------|---------------------------|
e-------------------------|---------------------------|
                                                         X 2 veces
e-------------------------|---------------------------|
B-6-6-----5-----3---------|-6---6-----5-----3---------|
G-5---5-----5-----5---3-5-|-5-----5-----5-----5---3-5-|
D-3-----3-----3-----3-----|-3-------3-----3-----3-----|
A-------------------------|---------------------------|
E-------------------------|---------------------------|

e---------------------------|---------------------------|
B-8-8-----8-----8-----8-----|-6-6-----6-----6-----6-----|
G-7---7-----7-----7-----7---|-5---5-----5-----5-----5---|
D-5-----5-----5-----5-----5-|-3-----3-----3-----3-----3-| X 2 veces
A---------------------------|---------------------------|
E---------------------------|---------------------------|

e---------------------------|---------------------------|
B-5-5-----5-----5-----5-----|-3-5-----5-----5-----5-----|
G-7---7-----7-----7-----7---|-5---5-----5-----5-----5---|
D-5-----5-----5-----5-----5-|-3-----3-----3-----3-----3-|
A---------------------------|---------------------------|
E---------------------------|---------------------------|

e----------------------------------|-------------------|
B----------------------------------|-5-5-5-------5-5-5-|
G---7-----5-----5-----5-----3--3-5-|-7-7-7-7-7-7-7-7-7-|
D-5---5-5---5-5---3-3---3-3--------|-5-5-5-5-5-5-5-5-5-| X 2
A----------------------------------|-5-5-5-5-5-5-5-5-5-|
E----------------------------------|-------------------|


     G                         F
      Y me_  pierdo_   entre_   lo__s signo__s
e---------------------------|---------------------------|
B-8-8-----8-----8-----8-----|-6-6-----6-----5-----6-----|
G-7---7-----7-----7-----7---|-5---5-----5-----5-----5---|
D-5-----5-----5-----5-----5-|-3-----3-----3-----3-----3-| 
A---------------------------|---------------------------|
E---------------------------|---------------------------|

      G                        F
        Y_ la_s me_ntiras     de_ lo_s libros___
e---------5-----------------|---------------------------|
B-8-8-----------8-----8-----|-6-6-----6-----5-----6-----|
G-7---7-----7-----7-----7---|-5---5-----5-----5-----5---|
D-5-----5-----5-----5-----5-|-3-----3-----3-----3-----3-| 
A---------------------------|---------------------------|
E---------------------------|---------------------------|

        G                    F
que mentirosos que son__   que cada amanecer proponen__
e---5-----------------------|---------------------------|
B-8-------8-----8-----8-----|-6-6-----6-----5-----6-----|
G-7---7-----7-----7-----7---|-5---5-----5-----5-----5---|
D-5-----5-----5-----5-----5-|-3-----3-----3-----3-----3-| 
A---------------------------|---------------------------|
E---------------------------|---------------------------|
                      
           G                       F                 C
       Sembrar__ muertos__,    cavar__   vivos__
e---5-----------------------|---------------------------|
B-8-------8-----8-----8-----|-6-6-----6-----5-----6-----|
G-7---7-----7-----7-----7---|-5---5-----5-----5-----5---|
D-5-----5-----5-----5-----5-|-3-----3-----3-----3-----3-| 
A---------------------------|---------------------------|
E---------------------------|---------------------------|                

           B
      y no puedo___        recordar_____ 
e---------------------------|---------------------------|
B-5-5-----5-----5-----5-----|-3-5-----5-----5-----5-----|
G-7---7-----7-----7-----7---|-5---5-----5-----5-----5---|
D-5-----5-----5-----5-----5-|-3-----3-----3-----3-----3-|
A---------------------------|---------------------------|
E---------------------------|---------------------------|

         G      Bm      Em    D     Csus2
  La vision de vuestras almas al pecar
e----------------------------------|-------------------|
B----------------------------------|-5-5-5-------5-5-5-|
G---7-----5-----5-----5-----3--3-5-|-7-7-7-7-7-7-7-7-7-|
D-5---5-5---5-5---3-3---3-3--------|-5-5-5-5-5-5-5-5-5-| 
A----------------------------------|-5-5-5-5-5-5-5-5-5-|
E----------------------------------|-------------------|

         G      Bm      Em    D     Csus2
   La vision de vuestras almas al pecar
e----------------------------------|-------------------|
B----------------------------------|-5-5-5-------5-5-5-|
G---7-----5-----5-----5-----3--3-5-|-7-7-7-7-7-7-7-7-7-|
D-5---5-5---5-5---3-3---3-3--------|-5-5-5-5-5-5-5-5-5-| 
A----------------------------------|-5-5-5-5-5-5-5-5-5-|
E----------------------------------|-------------------|


         G                                 F
        Aunque_ la_ historia_     no_ fuera_ cierta_
e---------------------------|----------------------3-----|
B-8-8-----7-----8-----7-----|-6-6-----5-----5--------3---|
G-7---7-----7-----7-----7---|-5---5-----5-----5--------5-|
D-5-----5-----5-----5-----5-|-3-----3-----3-----3--------| 
A---------------------------|----------------------------|
E---------------------------|----------------------------|

         G                           F
         Mi__ ignorancia __     me__ condena___
e---------------------------|----------------------3-----|
B-8-8-----7-----8-----7-----|-6-6-----5-----5--------3---|
G-7---7-----7-----7-----7---|-5---5-----5-----5--------5-|
D-5-----5-----5-----5-----5-|-3-----3-----3-----3--------| 
A---------------------------|----------------------------|
E---------------------------|----------------------------|

     G                        F
          a robar_ el_      tiempo_ a los de atrás__  
e---5-----------------------|---------------------------|
B-8-------8-----8-----8-----|-6-6-----6-----5-----6-----|
G-7---7-----7-----7-----7---|-5---5-----5-----5-----5---|
D-5-----5-----5-----5-----5-|-3-----3-----3-----3-----3-| 
A---------------------------|---------------------------|
E---------------------------|---------------------------|

     G                       F                      C
         Atreverse_     no__    merece_   la_   pena__ 
e---5-----------------------|---------------------------|
B-8-------8-----8-----8-----|-6-6-----6-----5-----6-----|
G-7---7-----7-----7-----7---|-5---5-----5-----5-----5---|
D-5-----5-----5-----5-----5-|-3-----3-----3-----3-----3-| 
A---------------------------|---------------------------|
E---------------------------|---------------------------|
 
           B
      y no puedo___        recordar_____ 
e---------------------------|---------------------------|
B-5-5-----5-----5-----5-----|-3-5-----5-----5-----5-----|
G-7---7-----7-----7-----7---|-5---5-----5-----5-----5---|
D-5-----5-----5-----5-----5-|-3-----3-----3-----3-----3-|
A---------------------------|---------------------------|
E---------------------------|---------------------------|

         G      Bm      Em    D     Csus2
  La vision de vuestras almas al pecar
e----------------------------------|-------------------|
B----------------------------------|-5-5-5-------5-5-5-|
G---7-----5-----5-----5-----3--3-5-|-7-7-7-7-7-7-7-7-7-|
D-5---5-5---5-5---3-3---3-3--------|-5-5-5-5-5-5-5-5-5-| 
A----------------------------------|-5-5-5-5-5-5-5-5-5-|
E----------------------------------|-------------------|

         G      Bm      Em    D     Csus2
   La vision de vuestras almas al pecar
e----------------------------------|-------------------|
B----------------------------------|-5-5-5-------5-5-5-|
G---7-----5-----5-----5-----3--3-5-|-7-7-7-7-7-7-7-7-7-|
D-5---5-5---5-5---3-3---3-3--------|-5-5-5-5-5-5-5-5-5-| 
A----------------------------------|-5-5-5-5-5-5-5-5-5-|
E----------------------------------|-------------------|

LA vision
e-------------------------|--------------------------|
B-8-8-8-8-8-8-8-8-8-8-8-8-|-6-6-6-6-6-6-6-6-6-6-6-6--|
G-7-7-7-7-7-7-7-7-7-7-7-7-|-5-5-5-5-5-5-5-5-5-5-5-5--|
D-5-5-5-5-5-5-5-5-5-5-5-5-|-3-3-3-3-3-3-3-3-3-3-3-3--|
A-5-5-5-5-5-5-5-5-5-5-5-5-|-3-3-3-3-3-3-3-3-3-3-3-3--|
E-------------------------|--------------------------|

e-------------------------|--------------------------|
B-8-8-8-8-8-8-8-8-8-8-8-8-|-6-6-6-6-6-6-6-6-6-6-6-6--|
G-7-7-7-7-7-7-7-7-7-7-7-7-|-5-5-5-5-5-5-5-5-5-5-5-5--|
D-5-5-5-5-5-5-5-5-5-5-5-5-|-3-3-3-3-3-3-3-3-3-3-3-3--|
A-5-5-5-5-5-5-5-5-5-5-5-5-|-3-3-3-3-3-3-3-3-3-3-3-3--|
E-------------------------|--------------------------|

e---------------------------|-----------------------------|
B-------8-------------7p5h7-|-------6-------------5p3h5---|
G---7-----7---7---7---------|---5-----5---5---5-----------|
D-5---5-----5---5---5-------|-3---3-----3---3---3---------|
A---------------------------|-----------------------------|
E---------------------------|-----------------------------|

e---------------------------|-----------------------------|
B-------8-------------7p5h7-|-------6-------------5p3h5---|
G---7-----7---7---7---------|---5-----5---5---5-----------|
D-5---5-----5---5---5-------|-3---3-----3---3---3-------5\|
A---------------------------|-----------------------------|
E---------------------------|-----------------------------|


           B
      y no puedo___        recordar_____ 
e---------------------------|---------------------------|
B-5-5-----5-----5-----5-----|-3-5-----5-----5-----5-----|
G-7---7-----7-----7-----7---|-5---5-----5-----5-----5---|
D-5-----5-----5-----5-----5-|-3-----3-----3-----3-----3-|
A---------------------------|---------------------------|
E---------------------------|---------------------------|

         G      Bm      Em    D     Csus2
  La vision de vuestras almas al pecar
e----------------------------------|-------------------|
B----------------------------------|-5-5-5-------5-5-5-|
G---7-----5-----5-----5-----3--3-5-|-7-7-7-7-7-7-7-7-7-|
D-5---5-5---5-5---3-3---3-3--------|-5-5-5-5-5-5-5-5-5-| 
A----------------------------------|-5-5-5-5-5-5-5-5-5-|
E----------------------------------|-------------------|

         G      Bm      Em    D     Csus2
   La vision de vuestras almas al pecar
e----------------------------------|-------------------|
B----------------------------------|-5-5-5-------5-5-5-|
G---7-----5-----5-----5-----3--3-5-|-7-7-7-7-7-7-7-7-7-|
D-5---5-5---5-5---3-3---3-3--------|-5-5-5-5-5-5-5-5-5-| 
A----------------------------------|-5-5-5-5-5-5-5-5-5-|
E----------------------------------|-------------------|


        G                    F
         No_ entiendo__           ma_s que_ signos___     
e---------------------------|---------------------------|
B-------8-------------8-----|-------6-------------6-----|
G-----7---7---------7---7---|-----5---5---------5---5---|
D---5-------5-----5-------5-|---3-------3-----3-------3-|
A-5-------------5-----------|-3-------------3-----------|
E---------------------------|---------------------------|

G                    F                   G
   De_ la_ locura_ del testigo_  que_ loco_ que_ esta___  
e---------------------------|------------------------------|
B-------8-------------8-----|-------6------------6---5---3-|
G-----7---7---------7---7---|-----5---5--------------------|
D---5-------5-----5-------5-|---3-------3-----3----3---3---|
A-5-------------5-----------|-3-------------3--------------|
E---------------------------|------------------------------|

                               F
           Que_ cada_      atardecer___ quisiera__
e---------------------------|---------------------------|
B-------8-------------8-----|-------6-------------6-----|
G-----7---7---------7---7---|-----5---5---------5---5---|
D---5-------5-----5-------5-|---3-------3-----3-------3-|
A-5-------------5-----------|-3-------------3-----------|
E---------------------------|---------------------------|

        G                       F
       Sembrar__ muertos__,    cavar__   vivos__
e---5-----------------------|---------------------------|
B-8-------8-----8-----8-----|-6-6-----6-----5-----6-----|
G-7---7-----7-----7-----7---|-5---5-----5-----5-----5---|
D-5-----5-----5-----5-----5-|-3-----3-----3-----3-----3-| 
A---------------------------|---------------------------|
E---------------------------|---------------------------|                

         C
Despiertos

           B
      y no puedo___        recordar_____ 
e---------------------------|---------------------------|
B-5-5-----5-----5-----5-----|-3-5-----5-----5-----5-----|
G-7---7-----7-----7-----7---|-5---5-----5-----5-----5---|
D-5-----5-----5-----5-----5-|-3-----3-----3-----3-----3-|
A---------------------------|---------------------------|
E---------------------------|---------------------------|

         G      Bm      Em    D     Csus2
  La vision de vuestras almas al pecar
e----------------------------------|-------------------|
B----------------------------------|-5-5-5-------5-5-5-|
G---7-----5-----5-----5-----3--3-5-|-7-7-7-7-7-7-7-7-7-|
D-5---5-5---5-5---3-3---3-3--------|-5-5-5-5-5-5-5-5-5-| 
A----------------------------------|-5-5-5-5-5-5-5-5-5-|
E----------------------------------|-------------------|

         G      Bm      Em    D     Csus2
   La vision de vuestras almas al pecar
e----------------------------------|-------------------|
B----------------------------------|-5-5-5-------5-5-5-|
G---7-----5-----5-----5-----3--3-5-|-7-7-7-7-7-7-7-7-7-|
D-5---5-5---5-5---3-3---3-3--------|-5-5-5-5-5-5-5-5-5-| 
A----------------------------------|-5-5-5-5-5-5-5-5-5-|
E----------------------------------|-------------------|

LA vision
e-------------------------|--------------------------|
B-8-8-8-8-8-8-8-8-8-8-8-8-|-6-6-6-6-6-6-6-6-6-6-6-6--|
G-7-7-7-7-7-7-7-7-7-7-7-7-|-5-5-5-5-5-5-5-5-5-5-5-5--|
D-5-5-5-5-5-5-5-5-5-5-5-5-|-3-3-3-3-3-3-3-3-3-3-3-3--|
A-5-5-5-5-5-5-5-5-5-5-5-5-|-3-3-3-3-3-3-3-3-3-3-3-3--|
E-------------------------|--------------------------|

La visión
e-------------------------|--------------------------|
B-8-8-8-8-8-8-8-8-8-8-8-8-|-6-6-6-6-6-6-6-6-6-6-6-6--|
G-7-7-7-7-7-7-7-7-7-7-7-7-|-5-5-5-5-5-5-5-5-5-5-5-5--|
D-5-5-5-5-5-5-5-5-5-5-5-5-|-3-3-3-3-3-3-3-3-3-3-3-3--|
A-5-5-5-5-5-5-5-5-5-5-5-5-|-3-3-3-3-3-3-3-3-3-3-3-3--|
E-------------------------|--------------------------|

Turuturu tuturu
e-------------------------|--------------------------|
B-8-8-8-8-8-8-8-8-8-8-8-8-|-6-6-6-6-6-6-6-6-6-6-6-6--|
G-7-7-7-7-7-7-7-7-7-7-7-7-|-5-5-5-5-5-5-5-5-5-5-5-5--|
D-5-5-5-5-5-5-5-5-5-5-5-5-|-3-3-3-3-3-3-3-3-3-3-3-3--|
A-5-5-5-5-5-5-5-5-5-5-5-5-|-3-3-3-3-3-3-3-3-3-3-3-3--|
E-------------------------|--------------------------|

e-------------------------|--------------------------|
B-8-8-8-8-8-8-8-8-8-8-8-8-|-6-6-6-6-6-6-6-6-6-6-6-6--|
G-7-7-7-7-7-7-7-7-7-7-7-7-|-5-5-5-5-5-5-5-5-5-5-5-5--|
D-5-5-5-5-5-5-5-5-5-5-5-5-|-3-3-3-3-3-3-3-3-3-3-3-3--|
A-5-5-5-5-5-5-5-5-5-5-5-5-|-3-3-3-3-3-3-3-3-3-3-3-3--|
E-------------------------|--------------------------|


Dudas, comentarios o alguna queja

Suggest correction
Creating personal tab
Creating personal tab
You can edit any tab online and save it as your Personal.

You can edit, replace or remove any tab part or add personal notes – all changes will be seen only by you.

Personal tabs can be accessed anytime from any device, even offline.
Learn more »
Give kudos to tab author, rate the tab!
1 2 3 4 5
comments
print report bad tab
guest
Wanna post a correction for this tab? Suggest correction