Oops, an error
Loading. Please wait.

Malas Intenciones tab

version 2
version 2

Whole song

Interactive

349 views 1 this week
no commentswrite comment
1 2 3 4 5
3 more votes to show rating
add to favorites
×
Save as Personal and add changes to this tab that will be seen only by you. Learn more ›
×
You can save this tab as Personal to edit and correct it or add notes. All changes will be seen only by you. Learn more »
launch autoscroll
font size
0
reset
how to read this tab
guitar tuner
edit
Autoscroll
slow
fast
+/-
esc
set tempo
stop
INTRODUCCIÓN:

    A              A              A              A
e|--------------|--------------|--------------|-------------|
B|---5----------|---5----------|---5----------|----5----5---|
G|-----7-6-0-6--|-----7-6-0-6--|-----7-6-0-6--|-----6----6--|
D|--7-7-7-7---7-|--7-7-7-----7-|--7-7-7-7---7-|---7--7-7--7-|
A|--------------|--------------|--------------|--7----7-----|
E|--------------|--------------|--------------|-------------|

   Bm            Em        A
e|-------------|--------|-----9----|
B|--7--7-7--7--|--8--8--|--10-10---|
G|---7--7-7--7-|---9--9-|----9---9-|   Estos tres acordes se tocan
D|----9----9---|----9---|----------|   3 veces y luego? 
A|-------------|--------|----------|
E|-------------|--------|----------|

    Bm           F#m           E
e|-------------|-------------|----9---|
B|--7--7-7--7--|--10----10---|--9--9--|  ?se tocan estos tres acordes
G|---7--7-7--7-|----11----11-|---9--9-|   para finalizar el intro.
D|----9----9---|------11-----|--------|
A|-------------|-------------|--------|
E|-------------|-------------|--------|

VERSOS:

    Bm            G        A        Bm            G        A
e|--2--2-2--2--|--3--3--|--0--0--|--2--2-2--2--|--3--3--|--0--0--|
B|---3--3-3--3-|---3--3-|---2--2-|---3--3-3--3-|---3--3-|---2--2-|
G|----4----4---|----0---|----2---|----4----4---|----0---|----2---|
D|-------------|--------|--------|-------------|--------|--------|
A|-------------|--------|--------|-------------|--------|--------|
E|-------------|--------|--------|-------------|--------|--------|

    Bm            G        A        Bm            F#m
e|--2--2-2--2--|--3--3--|--0--0--|--2--2-2--2--|--3--3-3--3--|
B|---3--3-3--3-|---3--3-|---2--2-|---3--3-3--3-|---3--3-3--3-|
G|----4----4---|----0---|----2---|----4----4---|----3----3---|
D|-------------|--------|--------|-------------|-------------|
A|-------------|--------|--------|-------------|-------------|
E|-------------|--------|--------|-------------|-------------|

CORO:

    F#m          Bm        A       F#m            A
e|--2----------|--2-----|--0-----|--2----------|--0----------|
B|--2----------|--3-----|--2-----|--2----------|--2----------|
G|--2----------|--4-----|--2-----|--2----------|--2----------|
D|--4----------|--4-----|--2-----|--4----------|--2----------|
A|--4----------|--2-----|--0-----|--4----------|--0----------|
E|--2----------|--2-----|--------|--2----------|-------------|

SOLO: En éste tal vez se confundan, esto se debe al ?delay? que utilizó 
Juan Valdivia en esta rola.

    Bm            Em        A         Bm             F#m         E
e|-------------|--------|-----9----|-------------|-------------|--------|
B|--7--7-7--7--|--8--8--|--10--10--|--7--7-7--7--|--10----10---|--9--9--|
G|---7--7-7--7-|---9--9-|----9---9-|---7--7-7--7-|----11----11-|---9--9-|
D|----9----9---|----9---|----------|----9----9---|------11-----|----9---|
A|-------------|--------|----------|-------------|-------------|--------|
E|-------------|--------|----------|-------------|-------------|--------|

    Bm             G            A          Bm           G           A 
e|---------------|-----------|----------|-------------|-----------|----------|
B|-------7-----7-|--8-7-8-7--|--8-7-----|------7----7-|--8-7-8-7--|--8-7-----|
G|-----7-----7---|-----9---9-|-----9-7--|----7----7---|-----9---9-|-----9-7--|
D|--9-9-9-9-9-9--|-----------|--------9-|---9-9--9-9--|-----------|--------9-|
A|---------------|-----------|----------|--9----9-----|-----------|----------|
E|---------------|-----------|----------|-------------|-----------|----------|

    Bm             G            A          Bm           G           A 
e|---------------|-----------|----------|-------------|-----------|-------------|
B|-------7-----7-|--8-7-8-7--|--8-7-----|------7----7-|--8-7-8-7--|--10-8-7-----|
G|-----7-----7---|-----9---9-|-----9-7--|----7----7---|-----9---9-|---------9-7-|
D|--9-9-9-9-9-9--|-----------|--------9-|---9-9--9-9--|-----------|-------------|
A|---------------|-----------|----------|--9----9-----|-----------|-------------|
E|---------------|-----------|----------|-------------|-----------|-------------|

    D               A            D                A
e|---------------|-------------|---------------|-------------|
B|--7--7---------|---5---------|--7--7---------|----5----5---|
G|---7--7--------|-----7-6-0-6-|---7--7--------|-----6----6--|
D|----7----------|--7-7-7-7----|----7----------|---7--7-7--7-|
A|---------------|-------------|---------------|--7----7-----|
E|---------------|-------------|---------------|-------------|


OUTRO:

   Bm            G          A         Bm           G         A
e|-------------|--------|-----9----|-------------|--------|-----9----|
B|--7--7-7--7--|--8--8--|--10--10--|--7--7-7--7--|--8--8--|--10--10--|
G|---7--7-7--7-|---9--9-|----9---9-|---7--7-7--7-|---9--9-|----9---9-|
D|----9----9---|----8---|----------|----9----9---|----8---|----------|
A|-------------|--------|----------|-------------|--------|----------|
E|-------------|--------|----------|-------------|--------|----------|

   Bm            G          A         Bm           A                   Bm
e|-------------|--------|-----9----|-------------|-------------------|--------|
B|--7--7-7--7--|--8--8--|--10--10--|--7--7-7--7--|--10---10-10---10--|--------|
G|---7--7-7--7-|---9--9-|----9---9-|---7--7-7--7-|----9----9--9----9-|--7-----|
D|----9----9---|----8---|----------|----9----9---|-----11------11----|--9-----|
A|-------------|--------|----------|-------------|-------------------|--9-----|
E|-------------|--------|----------|-------------|-------------------|--7-----|


      Bueno, sé que hay varios detalles que se me 
escaparon pero si quieren tocar la canción tal como es, 
creo que con esta tablatura es una buena base para sacar estos detalles, 
aunque cabe destacar que suena muy bien en esta versión.  
También  quiero agradecerle a Luis Torres, puesto que me apoye en su 
versión donde vienen únicamente los acordes.

      Alguna duda, pregunta, correción, etc. No duden en escribirme.

            
            
Suggest correction
Creating personal tab
Creating personal tab
You can edit any tab online and save it as your Personal.

You can edit, replace or remove any tab part or add personal notes – all changes will be seen only by you.

Personal tabs can be accessed anytime from any device, even offline.
Learn more »
Give kudos to tab author, rate the tab!
1 2 3 4 5
comments
print report bad tab
guest
Wanna post a correction for this tab? Suggest correction