Oops, an error
Loading. Please wait.

Maldito Duende tab

version 3
version 3

Whole song

Interactive

1,048 views 3 this week
no commentswrite comment
1 2 3 4 5
3 more votes to show rating
add to favorites
×
Save as Personal and add changes to this tab that will be seen only by you. Learn more ›
×
You can save this tab as Personal to edit and correct it or add notes. All changes will be seen only by you. Learn more »
launch autoscroll
font size
0
reset
how to read this tab
guitar tuner
backing track
0:00
0:00
edit
Autoscroll
slow
fast
+/-
esc
set tempo
stop
esta es la version k creo k es 98% correcta, qalkier cosa me escriben

Intro
|-----------------|-----------------|
|-----------------|-----------------|
|-----------------|-----------------|
|-9-----9---9-----|-7-----9---9-----|
|---9---------9---|---9---------9---|
|-----7---7-----7-|-----7---7-----7-|

|-----------------|-----------------|
|-----------------|-----------------|
|-----------------|-----------------|
|-9-----9---9-----|-7-----9---9-----|
|---9---------9---|---9---------9---|
|-----7---7-----7-|-----7---7-----7-|

Verso 1
|-----------------|-----------------|
|-------8---7-----|-------8---7-----|
|-9-----------9-7-|-9-----------9-7-|
|---9-------------|---9-------------|
|-----7-----------|-----7-----------|
|-----------------|-----------------|

|------------------|------------------|
|--------8---7-----|--------8---7-----|
|-9------------9-7-|-9------------9-7-|
|---10-------------|---10-------------|
|------7-----------|------7-----------|
|------------------|------------------|

|-----------------|--------------------|
|-----------------|-10---8---7---------|
|-7-----7---7-----|----7---7---7---7-6-|
|---7---------7---|--------------7-----|
|-----5---5-----5-|--------------------|
|-----------------|--------------------|

|-----------------|-----------------|
|-----------------|-----------------|
|-----------------|-7-----6---6-----|
|-9-----9---9-----|---9-----9---9---|
|---9---------9---|-----9---------9-|
|-----7---7-----7-|-----------------|

|-----------------|-----------------|
|-------8---7-----|-------8---7-----|
|-9-----------9-7-|-9-----------9-7-|
|---9-------------|---9-------------|
|-----7-----------|-----7-----------|
|-----------------|-----------------|

|------------------|------------------|
|--------8---7-----|--------8---7-----|
|-9------------9-7-|-9------------9-7-|
|---10-------------|---10-------------|
|------7-----------|------7-----------|
|------------------|------------------|

|-----------------|-----------------|
|-7-----8---7-----|-8-----7---7-----|
|---7---------7---|---7---------7---|
|-----7---7-----7-|-----7---7-----7-|
|-----------------|-----------------|
|-----------------|-----------------|

|-----------------|-----------------|
|-----------------|-----------------|
|-----------------|-----------------|
|-9-----9---9-----|-9-----9---9-----|
|---9---------9---|---9---------9---|
|-----7---7-----7-|-----7---7-----7-|

Coro:
|-----------------|-----------------|
|-------8---7-----|-------8---7-----|
|-9-----------9-7-|-9-----------9-7-|
|---9-------------|---9-------------|
|-----7-----------|-----7-----------|
|-----------------|-----------------|

|---------------|----8-8-8-7-7-|
|-8--8--8-8---8-|--8-8-8-8---8-|
|-7--7--7-7---7-|--7-0-0-0---0-|
|-9--9--9-9--10-|--9-----------|
|---------------|--------------|
|---------------|--------------|

|------------------|------------------|
|---------10---8---|-7----------------|
|-7---7-7----7---7-|---7---7---7---11-|
|-7---7------------|-----7---7---7----|
|------------------|------------------|
|------------------|------------------|

|-----------------|------------------|
|-----------------|------------------|
|-----------------|-7----------------|
|-9-----9---9-----|-----9---9-9/11---|
|---9---------9---|----------------7-|
|-----7---7-----7-|---7---7----------|

|-----------------|-----------------|
|-------8---7-----|-------8---7-----|
|-9-----------9-7-|-9-----------9-7-|
|---9-------------|---9-------------|
|-----7-----------|-----7-----------|
|-----------------|-----------------|

|---------------|----8-8-8-7-7-|
|-8--8--8-8---8-|--8-8-8-8---8-|
|-7--7--7-7---7-|--7-0-0-0---0-|
|-9--9--9-9--10-|--9-----------|
|---------------|--------------|
|---------------|--------------|

|------------------|------------------|
|---------10---8---|-7----------------|
|-7---7-7----7---7-|---7---7---7---11-|
|-7---7------------|-----7---7---7----|
|------------------|------------------|
|------------------|------------------|

|-----------------|------------------|
|-----------------|------------------|
|-----------------|-7----------------|
|-9-----9---9-----|-----9---9-9/11---|
|---9---------9---|----------------7-|
|-----7---7-----7-|---7---7----------|

Interlude:
|-----7-----------|-------10---10-----|
|----8----8---8---|-7-------------7---|
|---9-------------|---7-------------7-|
|--9--------------|-----7-------------|
|-7---------------|-------------------|
|-----------------|-------------------|

|--------8---8-----|-----------7---|
|-8------------8---|-7-----8-------|
|---9------------9-|---7-----------|
|-----10-----------|-----7---------|
|------------------|---------------|
|------------------|---------------|

|--------------------|-------10--10-----|
|----8-----8-----8---|-7------------7---|
|---9--9-9---9-9---9-|---7------------7-|
|--9-----------------|-----7------------|
|-7------------------|------------------|
|--------------------|------------------|

|--------8---8-----|-----------------|
|-8------------8---|-7-----8---7-----|
|---9------------9-|---7---------9-7-|
|-----10-----------|-----7-----------|
|------------------|-----------------|
|------------------|-----------------|

|------------------|------------------|
|------------------|------------------|
|-9-----7----------|-------7----------|
|---9-------10-9-7-|-9---------11-9-7-|
|-----7------------|---9--------------|
|------------------|-----7------------|

|------------------|------------------|
|------------------|-------8---7------|
|-------7----------|-------------7----|
|-9---------11-9-7-|-9-------------11-|
|---9--------------|---9--------------|
|-----7------------|-----7------------|

|-------------------|-------------------|
|-------------------|-------------------|
|--------7----------|--------7----------|
|-9----------10-9-7-|-9----------10-9-7-|
|---10-7------------|---10-7------------|
|-------------------|-------------------|

|-----------------|------------------------|
|-----------------|------------------------|
|-----------------|------------------------|
|-9-----9---9-----|-9-9-9-9-9-9-9--9--9--9-|
|---9---------9---|-9-9-9-9-9-9-9--9--9--9-|
|-----7---7-----7-|------------------------|

Verso 2
   X4          X4            X4        X2
|---------|-------------|---------|---------|-----------------|
|---------|-------------|---------|---------|-----------------|
|-9-9-9-9-|-------------|-7-7-7-7-|---------|-7-----6---6-----|
|-9-9-9-9-|-10-10-10-10-|-7-7-7-7-|-9-9-9-9-|---9-----9---9---|
|-7-7-7-7-|-10-10-10-10-|-5-5-5-5-|-9-9-9-9-|-----9---------9-|
|---------|--8--8--8--8-|---------|-7-7-7-7-|-----------------|
   X4          X4            X4        X2
|---------|-------------|---------|---------|-----------------|
|---------|-------------|---------|---------|-----------------|
|-9-9-9-9-|-------------|-7-7-7-7-|---------|-7-----6---6-----|
|-9-9-9-9-|-10-10-10-10-|-7-7-7-7-|-9-9-9-9-|---9-----9---9---|
|-7-7-7-7-|-10-10-10-10-|-5-5-5-5-|-9-9-9-9-|-----9---------9-|
|---------|--8--8--8--8-|---------|-7-7-7-7-|-----------------|

Coro Final:
|-----------------|-----------------|
|-------8---7-----|-------8---7-----|
|-9-----------9-7-|-9-----------9-7-|
|---9-------------|---9-------------|
|-----7-----------|-----7-----------|
|-----------------|-----------------|

|---------------|----8-8-8-7-7-|
|-8--8--8-8---8-|--8-8-8-8---8-|
|-7--7--7-7---7-|--7-0-0-0---0-|
|-9--9--9-9--10-|--9-----------|
|---------------|--------------|
|---------------|--------------|

|------------------|------------------|
|---------10---8---|-7----------------|
|-7---7-7----7---7-|---7---7---7---11-|
|-7---7------------|-----7---7---7----|
|------------------|------------------|
|------------------|------------------|

|-----------------|------------------|
|-----------------|-8---7------------|
|-----------------|---------9-7---7--|
|-9-----9---9-----|---9---9-----9----|
|---9---------9---|------------------|
|-----7---7-----7-|------------------|

Outro                    X3
|------------------|------------|-----------------|-----------------|
|------------------|------------|-------8---7-----|-------8---7-----|
|-9------9------9--|-9-9-9-9--9-|-9-----------9-7-|-------------9-7-|
|-9------9------9--|-9-9-9-9--9-|---9-------------|-9---------------|
|-7------7------7--|-7-7-7-7--7-|-----7-----------|---9-------------|
|-0------0------0--|------------|-----------------|-----7-----------|

|-----------------|-----------------|-------------------|-----------------|
|-------8---7-----|-------8---7-----|-------------------|-----------------|
|-------------7-6-|-------------7-6-|--------7----------|-----------------|
|-9---------------|-9---------------|-9----------10-9-7-|-9-----9---9-----|
|---9-------------|---9-------------|---10-7------------|---9---------9---|
|-----7-----------|-----7-----------|-------------------|-----7---7-----7-|

|-----------------|-----------------|--------|
|-----------------|-----------------|--------|
|-----------------|-7--X-X-7--X-X-7-|-9~~~---|
|-9--X-X-9--X-X-9-|-7--X-X-7--X-X-7-|-9~~~---|
|-9--X-X-9--X-X-9-|-----------------|-7~~~---|
|-----------------|-----------------|-0------|

            
            
Suggest correction
Creating personal tab
Creating personal tab
You can edit any tab online and save it as your Personal.

You can edit, replace or remove any tab part or add personal notes – all changes will be seen only by you.

Personal tabs can be accessed anytime from any device, even offline.
Learn more »
Give kudos to tab author, rate the tab!
1 2 3 4 5
comments
print report bad tab
guest
Wanna post a correction for this tab? Suggest correction