Oops, an error
Loading. Please wait.

Maldito Duende bass

version 2
version 2

Whole song

Interactive

740 views 9 this week
no commentswrite comment
1 2 3 4 5
3 more votes to show rating
add to favorites
×
Save as Personal and add changes to this tab that will be seen only by you. Learn more ›
×
You can save this tab as Personal to edit and correct it or add notes. All changes will be seen only by you. Learn more »
launch autoscroll
font size
0
reset
guitar tuner
backing track
0:00
0:00
edit
Autoscroll
slow
fast
+/-
esc
set tempo
stop
esta cancion es unas de las mejores
riff 1
Em                      C
-----------------------|-----------------------|
-----------------------|-----------------------|
7-7-7-7-7-7-7-7-7-7-7-7|3-3-3-3-3-3-3-3-3-3-3-3|
-----------------------|-----------------------|
riff 1(continuacion)
D                       B
-----------------------|-----------------------|
-----------------------|-----------------------|
5-5-5-5-5-5-5-5-5-5-5-5|2-2-2-2-2-2-2-2-2-2-2-2|
-----------------------|-----------------------|
riff 2
Em                      C
-----------------------|-----------------------|
-----------------------|-----------------------|
5-5-5-5-5-5-5-5-5-5-5/-|-3--------2-3-4--------|
--------------------------3-3-3-3--3-3-3-------|
riff2(continuacion)
D                       B
-----------------------|-----------------------|
-----------------------|-----------------------|
5-5-5-5-5-5-5-5-5-5-5-5|2--2-2--2-2-2--22------|
-----------------------|-----------------------|
riff 3
  Em      D      C     D
-----|------|-----|-------------|
-----|------|-----|-------------|
-----|------|-----|-------------|
--12-|---10-|---8-|----10/-5-3--|
riff 4
Em          Bm          D  G    D  G     Bm  
-----------|-----------|----------------|-----------|
-----------|-----------|5-5-----5-5-----|-----------|
7-7-7-7-7-7|2-2-2-2-2-2|---3-3-3---3-3-3|2-2-2-2-2-2|
-----------|-----------|----------------|-----------|


eso es todo la forma de tocarla es la siguiente:

en los versos se utiliza el riff 1
en el coro(amanece tan pronto) se utiliza el riff 2
en el intermedio el riff 3
enh la parte de la tonada(hohooohoho)y el final se
utiliza el riff 4

eso es todo espero que les sea de su agrado no tengo
bajo y lo saco con guitarra asi que disculpe un error
para dudas o correciones escribanme a
          theedge@

          the edge

            
            
Suggest correction
Creating personal tab
Creating personal tab
You can edit any tab online and save it as your Personal.

You can edit, replace or remove any tab part or add personal notes – all changes will be seen only by you.

Personal tabs can be accessed anytime from any device, even offline.
Learn more »
Give kudos to tab author, rate the tab!
1 2 3 4 5
comments
print report bad tab
guest
Wanna post a correction for this tab? Suggest correction