Oops, an error
Loading. Please wait.

Mar Adentro tab

version 1
version 1

Whole song

Interactive

441 views 3 this week
no commentswrite comment
1 2 3 4 5
3 more votes to show rating
add to favorites
×
Save as Personal and add changes to this tab that will be seen only by you. Learn more ›
×
You can save this tab as Personal to edit and correct it or add notes. All changes will be seen only by you. Learn more »
launch autoscroll
font size
0
reset
how to read this tab
guitar tuner
edit
Autoscroll
slow
fast
+/-
esc
set tempo
stop
Miguel Alejandro Díaz Palmerín
México.

Intro

   Dm       F       A#      Am
|---5-------5-------5-------5--5--5----|
|---6-------6-------6-------6--5--6----|
|---7-------5-------7-------5--5--5----|
|---7-------7-------8-------7--7--7----|
|---5-------8-------5-------7--7--7----|
|---5-------5-------5-------5--5--5----|


Verse 1

       Dm                     F
Y por fin he encontrado el camino    
     A#               Am
que ha de guiar mis pasos,   
        Dm                  F
y esta noche me espera el amor    
        A#          Am
en tus labios.
    
    Dm             F
De cada mirada, por dios,    
   A#                 Am
ardia el recuerdo en mi interior,    
      Dm
pero ya he desechado     
      F                  A#          Am 
por siempre la fruta podrida.   


ryth.1___________________________________________|

  Dm          Am        Dm              Am
|------------------------------------------------|
|-----------------------------------6---5--------|
|----7--------5-----------------7-----------5----|
|--------7----------5---3------------------------|
|------------------------------------------------|
|------------------------------------------------|


Chorus

    C          Em          G
En la prision del deseo estoy.   


Verse 2
          Dm               F
y aunque deba cavar en la tierra    
    A#                    Am
la tumba que se que me espera   
   Dm           F           A#    Am
jamas me vio nadie llorar asi.   
        Dm                 F
que termine un momento precioso    
   A#           Am
y le suceda la vulgaridad,    
     Dm           F
y nadar mar adentro    
   A#         Am 
y no poder salir.    


ryth.1___________________________________________|

  Dm          Am        Dm              Am
|------------------------------------------------|
|-----------------------------------6---5--------|
|----7--------5-----------------7-----------5----|
|--------7----------5---3------------------------|
|------------------------------------------------|
|------------------------------------------------|


Chorus

    C          Em          G
En la prision del deseo estoy
 G
junto a ti


Solo 1
 Dm        F          A#          Am                Dm     F        A#           Am
|--------------------------------------5--5-------|---------------------------------5---5---------------|
|---------------------6----------------5-----5----|-----------------6---------------5------5------------|
|-7----7---5-------------7--7-----5----5--------5-|-7---7--5-----------7--7-----5---5---------5---------|
|---7--------------------------7-------7----------|---7----------------------7------7-------------------|
|--------------8----8-----------------------------|------------8--8-------------------------------------|
|-------------------------------------------------|-----------------------------------------------------|


 Dm                 F           A#                   Am             C           Em           G
|-----------5-------5-----5---------------------------------------|-3----3------3--5--3------3-3-3-3-3--|
|--------6----6-----5--5----5--5h6--6--6---6-6---6--6p5----5---5--|---5----5----5-------5----3-3-3-3-3--|
|--7--7----------7--5--5-------5h7--7--7---7-7---7--7p5--5---5----|----------5--4---------4--4-4-4-4-4--|
|-----------------------------------------------------------------|--------------------------5-5-5-5-5--|
|-----------------------------------------------------------------|--------------------------5-5-5-5-5--|
|-----------------------------------------------------------------|--------------------------3-3-3-3-3--|


w/intro   Dm   F   A#   Am


Verse 1
       Dm                     F
Y por fin he encontrado el camino    
     A#              Am
que ha de guiar mis pasos,   
        Dm                  F
y esta noche me espera el amor    
        A#     Am
en tus labios.    
    Dm             F
De cada mirada, por dios,    
   A#                 Am
ardia el recuerdo en mi interior,    
     Dm           F
y nadar mar adentro    
   A#          Am   
y no querer salir.    


ryth.1___________________________________________|

  Dm          Am        Dm              Am
|------------------------------------------------|
|-----------------------------------6---5--------|
|----7--------5-----------------7-----------5----|
|--------7----------5---3------------------------|
|------------------------------------------------|
|------------------------------------------------|


Chorus
    C          Em          G
En la prision del deseo estoy.   
    C          Em          G
En la prision del deseo estoy.   
           
junto a ti.


Solo 2
 Dm        F          A#          Am                Dm     F        A#           Am
|--------------------------------------5--5-------|---------------------------------5---5---------------|
|---------------------6----------------5-----5----|-----------------6---------------5------5------------|
|-7----7---5-------------7--7-----5----5--------5-|-7---7--5-----------7--7-----5---5---------5---------|
|---7--------------------------7-------7----------|---7----------------------7------7-------------------|
|--------------8----8-----------------------------|------------8--8-------------------------------------|
|-------------------------------------------------|-----------------------------------------------------|


 Dm                 F           A#                   Am             C           Em           G
|-----------5-------5-----5---------------------------------------|-3----3------3--5--3------3-3-3-3-3--|
|--------6----6-----5--5----5--5h6--6--6---6-6---6--6p5----5---5--|---5----5----5-------5----3-3-3-3-3--|
|--7--7----------7--5--5-------5h7--7--7---7-7---7--7p5--5---5----|----------5--4---------4--4-4-4-4-4--|
|-----------------------------------------------------------------|--------------------------5-5-5-5-5--|
|-----------------------------------------------------------------|--------------------------5-5-5-5-5--|
|-----------------------------------------------------------------|--------------------------3-3-3-3-3--|

 Dm                     F                     A#                    Am
|-----8-8--------8-8--------8-8--------8-8--------8-8--------8-8--------8-8-----10p8--------------------|
|---6-----6----6-----6----6-----6----6-----6----6-----6----6-----6----6-----6--------10-----------------|
|-7----------7----------7----------7----------7----------7----------7-------------------10--------------|
|-------------------------------------------------------------------------------------------------------|
|-------------------------------------------------------------------------------------------------------|
|-------------------------------------------------------------------------------------------------------|

 Dm                  F                     A#                 Am
|------5--6p5--------8--5-----6p5------------------6p5--------8--5------6p5-----------|
|----6---------6-----------6-------6-----------6--------6-----------6---------6-------|
|-/7--------------7-------------------7---5h7----7---------7----------------------7---|
|-------------------------------------------------------------------------------------|
|-------------------------------------------------------------------------------------|
|-------------------------------------------------------------------------------------|

 Dm                 F           A#                   Am             C           Em           G
                                                                   en la pri-si-ón del deseo--esto----y
                                        
|-----------5-------5-----5---------------------------------------|-3----3------3--5--3------3-3-3-3-3--|
|--------6----6-----5--5----5--5h6--6--6---6-6---6--6p5----5---5--|---5----5----5-------5----3-3-3-3-3--|
|-/7--7----------7--5--5-------5h7--7--7---7-7---7--7p5--5---5----|----------5--4---------4--4-4-4-4-4--|
|-----------------------------------------------------------------|--------------------------5-5-5-5-5--|
|-----------------------------------------------------------------|--------------------------5-5-5-5-5--|
|-----------------------------------------------------------------|--------------------------3-3-3-3-3--|

 
G         Dm 
jun-to a ti-----------
Suggest correction
Creating personal tab
Creating personal tab
You can edit any tab online and save it as your Personal.

You can edit, replace or remove any tab part or add personal notes – all changes will be seen only by you.

Personal tabs can be accessed anytime from any device, even offline.
Learn more »
Give kudos to tab author, rate the tab!
1 2 3 4 5
comments
print report bad tab
guest
Wanna post a correction for this tab? Suggest correction