Oops, an error
Loading. Please wait.

Mar Adentro tab

version 2
version 2

Whole song

Interactive

183 views 1 this week
no commentswrite comment
1 2 3 4 5
3 more votes to show rating
add to favorites
×
Save as Personal and add changes to this tab that will be seen only by you. Learn more ›
×
You can save this tab as Personal to edit and correct it or add notes. All changes will be seen only by you. Learn more »
launch autoscroll
font size
0
reset
how to read this tab
guitar tuner
edit
Autoscroll
slow
fast
+/-
esc
set tempo
stop
Pues las otras versiones estan padres, pero estoy seguro que esta
es la mas completa; y ademas tiene los punteos reales.
Solo afinen bien su guitarra: Mi, la, re, sol, si, mi.

  Mar adentro 

INTRO:

Aquí les tengo un aproximado de lo que será el rasgueo durante
toda la canción, si se les complica pueden hacer otro rasgueo:
(basicamente es arriba y abajo)

   Dm                           F
e|-5--5-5-5--5--5-5-5--5--5-5-|-5--5-5-5--5--5-5-5--5--5-5-|
B|-6--6-6-6--6--6-6-6--6--6-6-|-6--6-6-6--6--6-6-6--6--6-6-|
G|-7--7-7-7--7--7-7-7--7--7-7-|-5--5-5-5--5--5-5-5--5--5-5-|
D|-7--7-7-7--7--7-7-7--7--7-7-|-7--7-7-7--7--7-7-7--7--7-7-|
A|-5--5-5-5--5--5-5-5--5--5-5-|-8--8-8-8--8--8-8-8--8--8-8-|
E|-X--X-X-X--X--X-X-X--X--X-X-|-X--X-X-X--X--X-X-X--X--X-X-|
   V  ^ v ^  V  ^ v ^  V  ^ v   V  ^ v ^  V  ^ v ^  V  ^ v

   Bb                            Am6           Am
e|-5--5-5-5-5-5--5-5-5--5--5-5-|-5--5-5-5-5-5--5-5-5--5--5-5-|
B|-6--6-6-6-6-6--6-6-6--6--6-6-|-6--6-6-6-6-6--5-5-5--5--5-5-|
G|-7--7-7-7-7-7--7-7-7--7--7-7-|-5--5-5-5-5-5--5-5-5--5--5-5-|
D|-8--8-8-8-8-8--8-8-8--8--8-8-|-7--7-7-7-7-7--7-7-7--7--7-7-|
A|-5--5-5-5-5-5--5-5-5--5--5-5-|-7--7-7-7-7-7--7-7-7--7--7-7-|
E|-X--X-X-X-X-X--X-X-X--X--X-X-|-X--X-X-X-X-X-(5)............|
   V                    V        V                    V
                                                     Y por...

El intro va dos veces.

V: fuerte abajo.
^: arriba.
v: abajo.
X: cuerda muda.
(5): pueden o no tocar esta cuerda, es opcional.

VERSO:
   Dm                     F        Bb              Am6
...fin he encontrado el camino que ha de guiar mis pasos
Am        Dm                  F          Bb     Am6
   Y esta noche me espera el amor en tus labios
Am    Dm              F      Bb                 Am6
   De cada mirada por dios ardia el recuerdo en mi interior
Am      Dm                  F                  Bb
   Pero ya he desechado por siempre la fruta podrida

*En este como en los demas se requieren 2 guitarras, una que que toque los
 acordes y la otra los punteos.

   Am6     Am     Dm             Am                  Dm
e|--------------|-1------------|--------------1----|-0--------|
B|-------3------|--------0-----|--------3----------|--------1-|
G|----------2---|--------------|-------------------|----------|
D|--------------|--------------|-3-----------------|----------|
A|--------------|--------------|-------------------|----------|
E|--------------|--------------|-------------------|----------|

Am       C          Em          G
    En la prision del deseo estoy
             Dm               F         Bb                    Am6
    Y aunque deba cavar en la tierra la tumba que se que me espera

Am    Dm           F           Bb   Am6
    Jamas me vio nadie llorar asi
Am         Dm                 F       Bb           Am6
    Que termine un momento precioso y le suceda la vulgaridad
Am      Dm          F     Bb
    Y nadar mar adentro y no poder salir


   Am6      Am    Dm             Am                  Dm
e|--------------|-1------------|--------------1----|-0--------|
B|-------3------|--------0-----|--------3----------|--------1-|
G|----------2---|--------------|-------------------|----------|
D|--------------|--------------|-3-----------------|----------|
A|--------------|--------------|-------------------|----------|
E|--------------|--------------|-------------------|----------|

Am     C          Em          G
    En la prision del deseo estoy junto a...


*Lo que esta entre paréntesis lo pueden tocar a modo de rasgueo.
  Dm         F         Bb          Am              Dm        F
e|---------|---------|-----------|-------(8)-5---|---------|---------|
B|---------|---------|-6---------|------(5)----5-|---------|---------|
G|-7-----7-|-5-------|---7--7----|-5---(5)-------|-7-----7-|-5-----7-|
D|----7----|-------7-|---------7-|---------------|----7----|---------|
A|---------|----8----|-----------|---------------|---------|----8----|
E|---------|---------|-----------|---------------|---------|---------|
...ti

   Bb           F               Dm             Am            Dm
e|------------|-------(8)-5---|-------5----5-|-8---5-------|---------|
B|-6----------|------(5)----5-|-----6----5---|--------5--6-|-6--6--6-|
G|---7--7-----|-5---(5)-------|-7------------|-------------|---------|
D|----------7-|---------------|--------------|-------------|---------|
A|------------|---------------|--------------|-------------|---------|
E|------------|---------------|--------------|-------------|---------|

   Am              C              Em               G         G
e|---------------|--------------|-3--5---3-----3-|---------|-------------|
B|-6-5---5-----5-|-8--5-8--5--8-|-5----------5---|-------8-|-----------8-|
G|-----5----5----|--------------|-4--------------|-7--7----|-7-7-7-7-7---|
D|---------------|--------------|----------------|-5--5----|-5-5-5-5-5---|
A|---------------|--------------|----------------|---------|-------------|
E|---------------|--------------|----------------|---------|-------------|

Dm   F   Bb   Am6 Am
                Y por...

   Dm                     F        Bb              Am6
...fin he encontrado el camino que ha de guiar mis pasos
Am        Dm                  F          Bb     Am6
   Y esta noche me espera el amor en tus labios
Am    Dm              F      Bb                 Am6
   De cada mirada por dios ardia el recuerdo en mi interior
Am      Dm          F     Bb
    Y nadar mar adentro y no querer salir


   Am6     Am     Dm             Am                  Dm
e|--------------|-1------------|--------------1----|-0--------|
B|-------3------|--------0-----|--------3----------|--------1-|
G|----------2---|--------------|-------------------|----------|
D|--------------|--------------|-3-----------------|----------|
A|--------------|--------------|-------------------|----------|
E|--------------|--------------|-------------------|----------|

Am     C          Em          G
    En la prision del deseo estoy

Am     C          Em          G
    En la prision del deseo estoy junto a...

  Dm         F         Bb          Am              Dm        F
e|---------|---------|-----------|-------(8)-5---|---------|---------|
B|---------|---------|-6---------|------(5)----5-|---------|---------|
G|-7-----7-|-5-------|---7--7----|-5---(5)-------|-7-----7-|-5-----7-|
D|----7----|-------7-|---------7-|---------------|----7----|---------|
A|---------|----8----|-----------|---------------|---------|----8----|
E|---------|---------|-----------|---------------|---------|---------|
...ti

   Bb           F               Dm             Am            Dm
e|------------|-------(8)-5---|-------5----5-|-8---5-------|---------|
B|-6----------|------(5)----5-|-----6----5---|--------5--6-|-6--6--6-|
G|---7--7-----|-5---(5)-------|-7------------|-------------|---------|
D|----------7-|---------------|--------------|-------------|---------|
A|------------|---------------|--------------|-------------|---------|
E|------------|---------------|--------------|-------------|---------|

   Am              C              Em               G         G
e|---------------|--------------|-3--5---3-----3-|---------|-------------|
B|-6-5---5-----5-|-8--5-8--5--8-|-5----------5---|-------8-|-----------8-|
G|-----5----5----|--------------|-4--------------|-7--7----|-7-7-7-7-7---|
D|---------------|--------------|----------------|-5--5----|-5-5-5-5-5---|
A|---------------|--------------|----------------|---------|-------------|
E|---------------|--------------|----------------|---------|-------------|

   

            
            
Suggest correction
Creating personal tab
Creating personal tab
You can edit any tab online and save it as your Personal.

You can edit, replace or remove any tab part or add personal notes – all changes will be seen only by you.

Personal tabs can be accessed anytime from any device, even offline.
Learn more »
Give kudos to tab author, rate the tab!
1 2 3 4 5
comments
print report bad tab
guest
Wanna post a correction for this tab? Suggest correction