Oops, an error
Loading. Please wait.

Mar Adentro bass

version 3
version 3

Whole song

Interactive

97 views 3 this week
no commentswrite comment
1 2 3 4 5
3 more votes to show rating
add to favorites
×
Save as Personal and add changes to this tab that will be seen only by you. Learn more ›
×
You can save this tab as Personal to edit and correct it or add notes. All changes will be seen only by you. Learn more »
launch autoscroll
font size
0
reset
guitar tuner
edit
Autoscroll
slow
fast
+/-
esc
set tempo
stop
la anterior es buena
Solo q faltan algunos arreglos
espero q les guste y la califiquen bn
 saludos a la banda
de la epl
ganapanez

intro guitarra
entra bajo a la a tercera vuelta de la guitarra

riff 1
G----------------------------------------------------------------I
D----------3333333------------------------3333333----------------I
A----55555---------11111------------55555--------11111-----------Ix2
E-------------------------5555-5653 ---------------------5555-563-I
se toca 2 veces(una vuelta por estrofa)

Y por fin he encontrado el camino
que ha de guiar mis pasos,
y esta noche me espera el amor
en tus labios.

De cada mirada, por dios,
ardía el recuerdo en mi interior,
pero ya he desechado
por siempre la fruta podrida.

fig del piano
riff 2
G-----------------------------------------------------------------I
D-----------------------------------------------------------------I
A--------5555555S*121212121212---3-55555555*1212121212-------------I
E------------------------------5------------------------------------I

coro
riff 3
G----------------------------------------------------------------I
D----------------------------------------------------------------I
A-----------3-3-3-3-3-3*7-7-7-7-7-10-10-10-10-10------------------I
E-----------------------------------------------------------------I
En la prisión del deseo estoy.

riff 1
G----------------------------------------------------------------I
D----------3333333------------------------3333333----------------I
A----55555---------11111------------55555--------11111-----------Ix2
E-------------------------5555-5653 ---------------------5555-563-I
Y aunque deba cavar en la tierra
la tumba que sé que me espera,
jamás me vio nadie llorar así.
que termine un momento precioso
y le suceda la vulgaridad,
y nadar mar adentro
y no poder salir.

fig del piano
riff 2
G-----------------------------------------------------------------I
D-----------------------------------------------------------------I
A--------5555555S*121212121212---3-55555555*1212121212-------------I
E------------------------------5-----------------------------------I

riff 3
G--------------------------------------------------------------I
D---------------------------------------------------------------I
A-----------3-3-3-3-3-3*7-7-7-7-7-10-10-10-10-10----------------I
E---------------------------------------------------------------I

En la prisión del deseo estoy
junto a ti.

aqui viene el 1er solo
no hay mucho pierde solo se tocan los riff en su order

riff 1x2
riff2
riff 3 aqui se hace un pequeño cambio al momento q termina en sol
la guitarra igual q el bajo
este hace un pequeño arreglo al
 parar la musica
escuchen bien la cancion para q sepan
en q momento hacerlo
aqui les dejo el adorno

G--------------------------------------------I------------------I
D--------------------------------------------I-----------------I
A-----3-3-3-3-3-3*7-7-7-7-7-10-10-10-10-10---I-10*1*0---------I
E?-------------------------------------------I----------------I
                                             I
                                         Para la musica


intro guitarra
entra el bajo como al  principio
G----------------------------------------------------------------I
D----------3333333------------------------3333333----------------I
A----55555---------11111------------55555--------11111-----------Ix2
E-------------------------5555-5653 ---------------------5555-563-I

Y por fin he encontrado el camino
que ha de guiar mis pasos,
y esta noche me espera el amor
en tus labios.
De cada mirada, por dios,
ardía el recuerdo en mi interior,
y nadar mar adentro
y no querer salir.

fig del piano
riff 2
G----------------------------------------------------------------I
D----------------------------------------------------------------I
A-----5555555S*121212121212---3-55555555*1212121212-------I
E------------------------------5----------------------------------I

riff 3
G---------------------------------------------------------------I
D---------------------------------------------------------------I
A-----------3-3-3-3-3-3*7-7-7-7-7-10-10-10-10-10--------------Ix2
E----------------------------------------------------------------I
En la prisión del deseo estoy.
En la prisión del deseo estoy


sigue el 2do solo la diferencia aqui es q se hacen 2 ciclos asi
riff 1
riff 2
riff3(ya no se usa adorno)
al quedar la guitarra en sol al fianl del solo entra un remate
de bateria y se empieza con
el riff 1
riff 2
ahora biene el final q cambia solo un poco el riff 3
G--------------------------------------------------I
D--------------------------------------------------I
A---3-3-3-3*7-7-7-7-10-10-10-10-10-5------- --------I
E----------------------------------------------------I

En la prisión del deseo estoy
junto a ti.

bueno esta es la cancion
el * significa q se resvala el dedo para dar efecto de slide
espero q les salga chido
hasta la proxima
colaboracion
paro banda es todo aclaraciones aqui esta mi correo
dracul_dominemterra_09@

            
            
Suggest correction
Creating personal tab
Creating personal tab
You can edit any tab online and save it as your Personal.

You can edit, replace or remove any tab part or add personal notes – all changes will be seen only by you.

Personal tabs can be accessed anytime from any device, even offline.
Learn more »
Give kudos to tab author, rate the tab!
1 2 3 4 5
comments
print report bad tab
guest
Wanna post a correction for this tab? Suggest correction