Oops, an error
Loading. Please wait.

Mar Adentro tab

version 3
version 3

Whole song

Interactive

139 views 1 this week
no commentswrite comment
1 2 3 4 5
3 more votes to show rating
add to favorites
×
Save as Personal and add changes to this tab that will be seen only by you. Learn more ›
×
You can save this tab as Personal to edit and correct it or add notes. All changes will be seen only by you. Learn more »
launch autoscroll
font size
0
reset
how to read this tab
guitar tuner
edit
Autoscroll
slow
fast
+/-
esc
set tempo
stop
Hola Amigos ..  sin mas les dejo mi primera trans.. de Heroes del Silencio
que que el punteo esta al 100% esta muy buena.. tengo algunas mas en mi
compu ... ahora q tengo un poco de time.. los voy a subir...Aka
Les dejo mi correo Edu_1621@ por si tienen alguna queja
de esta transcrip... ok¡¡

Intro

Dm       F       A#      Am

Verse I

       Dm                     F
Y por fin he encontrado el camino
     A#               Am
que ha de guiar mis pasos,
        Dm                  F
y esta noche me espera el amor
        A#          Am
en tus labios.

    Dm             F
De cada mirada, por dios,
   A#                 Am
ardia el recuerdo en mi interior,
      Dm
pero ya he desechado
      F                  A#          Am
por siempre la fruta podrida.


  Dm          Am            Dm                 Am
-------------|-------------|------------1----|--0-----------|
---3---------|--1----------|-------3---------|-----------1--|
--------2----|--------0----|-----------------|--------------|
-------------|-------------|--3--------------|--------------|
-------------|-------------|-----------------|--------------|
-------------|-------------|-----------------|--------------|

Chorus

    C          Em          G
En la prision del deseo estoy.


Verse 2
          Dm               F
y aunque deba cavar en la tierra
    A#                    Am
la tumba que se que me espera
   Dm           F           A#    Am
jamas me vio nadie llorar asi.
        Dm                 F
que termine un momento precioso
   A#           Am
y le suceda la vulgaridad,
     Dm           F
y nadar mar adentro
   A#         Am
y no poder salir.


  Dm          Am            Dm                 Am
-------------|-------------|------------1----|--0-----------|
---3---------|--1----------|-------3---------|-----------1--|
--------2----|--------0----|-----------------|--------------|
-------------|-------------|--3--------------|--------------|
-------------|-------------|-----------------|--------------|
-------------|-------------|-----------------|--------------|

Chorus

    C          Em          G
En la prision del deseo estoy
 G
junto a ti


Solo I

Dm                     F

|---------------------|-------------------|
|--3-------------3----|--1-----------1----|
|---------2-----------|-------------------|
|---------------------|-------3-----------|
|---------------------|-------------------|
|---------------------|-------------------|

 A#                    Am
--1------------------|-----------0-8--L-5--L---0--L-|
-----3-----3---------|--1----L-1-1------------------|
----------------2----|------------------------------|
---------------------|------------------------------|
---------------------|------------------------------|
---------------------|------------------------------|

 Dm                    F                 A#

-------------------|-------------------|--1------------------|
--3-----------3----|--1-----------1----|-----3---3-----------|
-------------------|-------------------|----------------2----|
-------3-----------|-------3-----------|---------------------|
-------------------|-------------------|---------------------|
-------------------|-------------------|---------------------|

Am                             Dm

-----------0-8--L-5--L---0--L-|------1----5----0-5-|
--1----L-1-1------------------|--3-----------------|
------------------------------|--------------------|
------------------------------|--------------------|
------------------------------|--------------------|
------------------------------|--------------------|

  F                  A#                     Am

--8----5------------|---------------------|-----------------|
------------5----6--|-L---6--6----6--6----|--6--5----5---5--|
--------------------|---------------------|-------5---------|
--------------------|---------------------|-----------------|
--------------------|---------------------|-----------------|
--------------------|---------------------|-----------------|

  C                       Em                   G

--3----0--3---0--3---0-3-|--6--5----3----0---|-----------3--|
-------------------------|-------------------|--3---3-------|
-------------------------|-------------------|--0---0-------|
-------------------------|-------------------|--------------|
-------------------------|-------------------|--------------|
-------------------------|-------------------|--------------|

  G

-----------------3--|
--3--3-3-3--3-------|
--0--0-0-0--0-------|
--------------------|
--------------------|
--------------------|

Intro

Verse I
       Dm                     F
Y por fin he encontrado el camino
     A#              Am
que ha de guiar mis pasos,
        Dm                  F
y esta noche me espera el amor
        A#     Am
en tus labios.
    Dm             F
De cada mirada, por dios,
   A#                 Am
ardia el recuerdo en mi interior,
     Dm           F
y nadar mar adentro
   A#          Am
y no querer salir.

  Dm          Am               Dm              Am

-------------|-------------|------------1----|--0-----------|
---3---------|--1----------|-------3---------|-----------1--|
--------2----|--------0----|-----------------|--------------|
-------------|-------------|--3--------------|--------------|
-------------|-------------|-----------------|--------------|
-------------|-------------|-----------------|--------------|

Chorus
    C          Em          G
En la prision del deseo estoy.
    C          Em          G
En la prision del deseo estoy.

junto a ti.

Solo II

Dm                     F                    A#

---------------------|---------------------|--1--------------------|
--3-------------3----|--1-------------1----|-----3-----3-----------|
---------2-----------|---------------------|------------------2----|
---------------------|---------3-----------|-----------------------|
---------------------|---------------------|-----------------------|
---------------------|---------------------|-----------------------|

Am                               Dm

-------------0-8--L-5--L---0--L-|---------------------|
--1------L-1-1------------------|--3-------------3----|
--------------------------------|---------------------|
--------------------------------|---------3-----------|
--------------------------------|---------------------|
--------------------------------|---------------------|

 F

---------------------|
--1-------------1----|
---------------------|
---------3-----------|
---------------------|
---------------------|


 A#                      Am

--1--------------------|-------------0-8--L-5--L---0--L-|
-----3-----3-----------|--1------L-1-1------------------|
------------------2----|--------------------------------|
-----------------------|--------------------------------|
-----------------------|--------------------------------|
-----------------------|--------------------------------|

Dm                          F                     A#

---------1----5------0-5-|--8------5------------|-----------------------|
--3----------------------|--------------5----6--|--L----6--6----6--6----|
-------------------------|----------------------|-----------------------|
-------------------------|----------------------|-----------------------|
-------------------------|----------------------|-----------------------|
-------------------------|----------------------|-----------------------|

Am                       C                          Em

-----------------------|--3----0--3----0--3---0-3-|--6--5----3----0------|
--6--5-----5--------5--|--------------------------|----------------------|
--------5--------------|--------------------------|----------------------|
-----------------------|--------------------------|----------------------|
-----------------------|--------------------------|----------------------|
-----------------------|--------------------------|----------------------|

G                    Dm                         F

--------------3------|-----------------3------|---1--8-8---------8-8----|
--3------3-----------|--3--3-3-3--3-----------|-3---------6---6------6--|
--0------0-----------|--0--0-0-0--0-----------|-------------7-----------|
---------------------|------------------------|-------------------------|
---------------------|------------------------|-------------------------|
---------------------|------------------------|-------------------------|

A#                             Am

-------8-8----------8-8-----|-------8-8----------8-8-----|
----6-------6----6-------6--|----6-------6----6-------6--|
--7------------7------------|--7------------7------------|
----------------------------|----------------------------|
----------------------------|----------------------------|
----------------------------|----------------------------|

Dm                            F

-------8-8-----10-8----------|------------5--6-5-------5--|
----6-------6----------------|-------6-6----------6-6-----|
--7------------------10---7--|--5-7-----------------------|
-----------------------------|----------------------------|
-----------------------------|----------------------------|
-----------------------------|----------------------------|

A#                             Am

--8---5-5-----6-5----------|------------5--6-5-------5--|
-----------6-------6-6-----|-------6-6----------6-6-----|
------------------------7--|--5-7-----------------------|
---------------------------|----------------------------|
---------------------------|----------------------------|
---------------------------|----------------------------|

 Dm                            F                        A#

--8---5-5-----6-5----------|-----------5-------5----|--5---5-------8--5--|
-----------6-------6-6-----|----------------6-------|--5---5----5--------|
------------------------7--|--5-7----L--------------|--------------------|
---------------------------|------------------------|--------------------|
---------------------------|------------------------|--------------------|
---------------------------|------------------------|--------------------|

  Am               C          Em        G
                  en LA pri-SI-ón del deseo  esto??.. y

-------5----5--5----5--|--5--------------------|-------------------|
--6----6----6--6----6--|--6--5-----5--------L--|-------------------|
--7--------------------|--5-----5--------------|-------------------|
-----------------------|-----------------------|-------------------|
-----------------------|-----------------------|-------------------|
-----------------------|-----------------------|-------------------|

G         Dm
jun-to a ti???????..


Ven q esta Facil ¡¡¡ xD

         Saludos Para toa la gente del Rico Pariachi jeje.

            
            
Suggest correction
Creating personal tab
Creating personal tab
You can edit any tab online and save it as your Personal.

You can edit, replace or remove any tab part or add personal notes – all changes will be seen only by you.

Personal tabs can be accessed anytime from any device, even offline.
Learn more »
Give kudos to tab author, rate the tab!
1 2 3 4 5
comments
print report bad tab
guest
Wanna post a correction for this tab? Suggest correction