Oops, an error
Loading. Please wait.

Medicina Húmeda tab

35 views 1 this week
no commentswrite comment
1 2 3 4 5
3 more votes to show rating
add to favorites
×
Save as Personal and add changes to this tab that will be seen only by you. Learn more ›
×
You can save this tab as Personal to edit and correct it or add notes. All changes will be seen only by you. Learn more »
launch autoscroll
font size
0
reset
how to read this tab
guitar tuner
edit
Autoscroll
slow
fast
+/-
esc
set tempo
stop
Guitarra1


                                                                         
E||------------------------------|-------------------|------------------|
B||------------------------------|-------------------|------------------|
G||------5-2---------------------|-------------------|------------------|
D||----------5-5-2-------2-----2-|----------------2--|------------------|
A||----------------5-3-5---5-3-0-|----------------0--|------------------|
E||------------------------------|-------------------|------------------|


                                                                               
------------------------------|----------------|------------------------------|
------------------------------|----------------|------------------------------|
------------------------------|----------------|------------------------------|
--------7--------5------------|--------5-------|--------7--------5------------|
--0-5-7----5-6-7----------3---|--5-3---3--3----|--0-5-7----5-6-7----------3---|
--------------------3-4-5-----|------5------3--|--------------------3-4-5-----|


                                                               
--------------|------------------------------|----------------|
--------------|------------------------------|----------------|
--------------|------------------------------|----------------|
--------2-----|--------7--------5------------|--------5-------|
--3-2---0-----|--0-5-7----5-6-7----------3---|--5-3---3--3----|
------3-------|--------------------3-4-5-----|------5------3--|


                                                                            
------------------------------|--------------|-----------------------------|
------------------------------|--------------|-----------------------------|
------------------------------|--------------|-----------------------------|
--------7--------5------------|--------2-----|--7--7-7--7-7--------7--7-7--|
--0-5-7----5-6-7----------3---|--3-2---0-----|--5--5-5--5-5--7-5---5--5-5--|
--------------------3-4-5-----|------3-------|-------------------8---------|


                                                          
---------------------------|-----------------------------|
---------------------------|-----------------------------|
---------------------------|-----------------------------|
--7--7-7--7-7--------2-----|--7--7-7--7-7--------7--7-7--|
--5--5-5--5-5--3-2---0-----|--5--5-5--5-5--7-5---5--5-5--|
-------------------3-------|-------------------8---------|


                                                                            
---------------------------|------------------------------|----------------|
---------------------------|------------------------------|----------------|
---------------------------|------------------------------|----------------|
--7--7-7--7-7--------2-----|--------7--------5------------|--------5-------|
--5--5-5--5-5--3-2---0-----|--0-5-7----5-6-7----------3---|--5-3---3--3----|
-------------------3-------|--------------------3-4-5-----|------5------3--|


                                                                             
------------------------------|--------------|------------------------------|
------------------------------|--------------|------------------------------|
------------------------------|--------------|------------------------------|
--------7--------5------------|--------2-----|--------7--------5------------|
--0-5-7----5-6-7----------3---|--3-2---0-----|--0-5-7----5-6-7----------3---|
--------------------3-4-5-----|------3-------|--------------------3-4-5-----|


                                                               
----------------|------------------------------|--------------|
----------------|------------------------------|--------------|
----------------|------------------------------|--------------|
--------5-------|--------7--------5------------|--------2-----|
--5-3---3--3----|--0-5-7----5-6-7----------3---|--3-2---0-----|
------5------3--|--------------------3-4-5-----|------3-------|


                                                          
-----------------------------|---------------------------|
-----------------------------|---------------------------|
-----------------------------|---------------------------|
--7--7-7--7-7--------7--7-7--|--7--7-7--7-7--------2-----|
--5--5-5--5-5--7-5---5--5-5--|--5--5-5--5-5--3-2---0-----|
-------------------8---------|-------------------3-------|


                                                                             
-----------------------------|--------------------------|-------------------|
-----------------------------|--------------------------|-------------------|
-----------------------------|--5-2---------------------|-------------------|
--7--7-7--7-7--------7--7-7--|------5-5-2-------2-----3-|-----------------0-|
--5--5-5--5-5--7-5---5--5-5--|------------5-3-5---5-3-3-|-----------------0-|
-------------------8---------|--------------------------|-------------------|


                                                                   
--------------------|------------------|--------------------------|
--------------------|------------------|--------------------------|
--------------------|------------------|--------------------------|
---------3--------5-|------------------|--2--2--2--2--2--2--2--2--|
---------1--------3-|------------------|--0--0--0--0--0--0--0--0--|
--------------------|------------------|--------------------------|


                                                              
--------------------------|--------------|-------------------|
--------------------------|--------------|-------------------|
--------------------------|--------------|-------------------|
--------------------------|--------------|--2----------------|
--5--5--5--5--5--5--5--5--|--3--3--3--3--|--2----------------|
--3--3--3--3--3--3--3--3--|--1--1--1--1--|--0----------------|


                                                              
------------------------------|------------------------------|
------------------------------|------------------------------|
--5-2-------------------------|--2---------------------------|
------5-5-2-------2-----2-----|----5-2-2---------2-----2-----|
------------5-3-5---5-3-0-----|----------5-0-3-5---5-3-0-----|
------------------------------|------------------------------|


                                                              
------------------------------|------------------------------|
------------------------------|------------------------------|
--5-2-------------------------|--2---------------------------|
------5-5-2-------2-----2-----|----5-2-2---------2-----2-----|
------------5-3-5---5-3-0-----|----------5-0-3-5---5-3-0-----|
------------------------------|------------------------------|


                                                          
-----------------------------|---------------------------|
-----------------------------|---------------------------|
-----------------------------|---------------------------|
--7--7-7--7-7--------7--7-7--|--7--7-7--7-7--------2-----|
--5--5-5--5-5--7-5---5--5-5--|--5--5-5--5-5--3-2---0-----|
-------------------8---------|-------------------3-------|


                                                          
-----------------------------|---------------------------|
-----------------------------|---------------------------|
-----------------------------|---------------------------|
--7--7-7--7-7--------7--7-7--|--7--7-7--7-7--------2-----|
--5--5-5--5-5--7-5---5--5-5--|--5--5-5--5-5--3-2---0-----|
-------------------8---------|-------------------3-------|


                                                                               
------------------------------|----------------|------------------------------|
------------------------------|----------------|------------------------------|
------------------------------|----------------|------------------------------|
--------7--------5------------|--------5-------|--------7--------5------------|
--0-5-7----5-6-7----------3---|--5-3---3--3----|--0-5-7----5-6-7----------3---|
--------------------3-4-5-----|------5------3--|--------------------3-4-5-----|


                                                               
--------------|------------------------------|----------------|
--------------|------------------------------|----------------|
--------------|------------------------------|----------------|
--------2-----|--------7--------5------------|--------5-------|
--3-2---0-----|--0-5-7----5-6-7----------3---|--5-3---3--3----|
------3-------|--------------------3-4-5-----|------5------3--|


                                                                            
------------------------------|--------------|-----------------------------|
------------------------------|--------------|-----------------------------|
------------------------------|--------------|-----------------------------|
--------7--------5------------|--------2-----|--7--7-7--7-7--------7--7-7--|
--0-5-7----5-6-7----------3---|--3-2---0-----|--5--5-5--5-5--7-5---5--5-5--|
--------------------3-4-5-----|------3-------|-------------------8---------|


                                                          
---------------------------|-----------------------------|
---------------------------|-----------------------------|
---------------------------|-----------------------------|
--7--7-7--7-7--------2-----|--7--7-7--7-7--------7--7-7--|
--5--5-5--5-5--3-2---0-----|--5--5-5--5-5--7-5---5--5-5--|
-------------------3-------|-------------------8---------|


                                                                    
--------------------------|-------------------|--------------------|
--------------------------|-------------------|--------------------|
--5-2---------------------|-------------------|--------------------|
------5-5-2-------2-----3-|-----------------0-|---------3--------5-|
------------5-3-5---5-3-3-|-----------------0-|---------1--------3-|
--------------------------|-------------------|--------------------|


                                                                         
------------------|--------------------------|--------------------------|
------------------|--------------------------|--------------------------|
------------------|--------------------------|--------------------------|
------------------|--2--2--2--2--2--2--2--2--|--------------------------|
------------------|--0--0--0--0--0--0--0--0--|--5--5--5--5--5--5--5--5--|
------------------|--------------------------|--3--3--3--3--3--3--3--3--|


                                                                  
--------------|-------------------|------------------------------|
--------------|-------------------|------------------------------|
--------------|-------------------|-----------------5--7-5-7b7b--|
--------------|--2----------------|--------7--5-6-7--------------|
--3--3--3--3--|--2----------------|--0-5-7-----------------------|
--1--1--1--1--|--0----------------|------------------------------|


                                                                        
---------------|----------------------------------------|--------------|
---------------|----------------------------------------|--------------|
--7-5---5------|-----------14-----------12--12r---------|--------------|
------7-----7--|-----12-14-----12-13-14---------14-12---|--------7-----|
---------------|--12------------------------------------|--0-5-7-------|
---------------|----------------------------------------|--------------|


                                             
----------------------------------------15--|
------------------------13--15-13-15-15-----|
-----------14--12-13-14---------------------|
-----12-14----------------------------------|
--12----------------------------------------|
--------------------------------------------|


                                                                            
------15-17b-17r--17-15-14-15--15-14-12-|--14--14-12----12---12r-----------|
--15------------------------------------|------------15----------13--------|
----------------------------------------|---------------------------14-----|
----------------------------------------|----------------------------------|
----------------------------------------|----------------------------------|
----------------------------------------|----------------------------------|


                                   
----------------------------------|
------------------5---------------|
--5/7-7-5/7-7-5-7---7-5-5/7-7-5-7/|
----------------------------------|
----------------------------------|
----------------------------------|


                                                    
---------------------------------------------------|
---------------------------------------------------|
--12/14-14-12/14-14-14-17-14----14-17-14-17-14-14--|
-----------------------------17--------------------|
---------------------------------------------------|
---------------------------------------------------|


                                                              
----------------------------------|--8-5---------------------|
------------------5---------------|------8-8-5-------5-----6-|
--5/7-7-5/7-7-5-7---7-5-5/7-7-5-7-|------------7-5-7---7-5-5-|
----------------------------------|--------------------------|
----------------------------------|--------------------------|
----------------------------------|--------------------------|


                                                            
-------------------|--------------------|------------------|
-------------------|--------------------|------------------|
-------------------|--------------------|------------------|
-----------------0-|---------3--------5-|------------------|
-----------------0-|---------1--------3-|------------------|
-------------------|--------------------|------------------|


                                                                     
--------------------------|--------------------------|--------------|
--------------------------|--------------------------|--------------|
--------------------------|--------------------------|--------------|
--2--2--2--2--2--2--2--2--|--------------------------|--------------|
--0--0--0--0--0--0--0--0--|--5--5--5--5--5--5--5--5--|--3--3--3--3--|
--------------------------|--3--3--3--3--3--3--3--3--|--1--1--1--1--|


                                                   
-------------------|------------------------------|
-------------------|------------------------------|
-------------------|--5-2-------------------------|
--2----------------|------5-5-2-------2-----2-----|
--2----------------|------------5-3-5---5-3-0-----|
--0----------------|------------------------------|


                                                              
------------------------------|------------------------------|
------------------------------|------------------------------|
--2---------------------------|--5-2-------------------------|
----5-2-2---------2-----2-----|------5-5-2-------2-----2-----|
----------5-0-3-5---5-3-0-----|------------5-3-5---5-3-0-----|
------------------------------|------------------------------|


                                
------------------------------||
------------------------------||
--2---------------------------||
----5-2-2---------2-----2-----||
----------5-0-3-5---5-3-0-----||
------------------------------||

            
            
Suggest correction
Creating personal tab
Creating personal tab
You can edit any tab online and save it as your Personal.

You can edit, replace or remove any tab part or add personal notes – all changes will be seen only by you.

Personal tabs can be accessed anytime from any device, even offline.
Learn more »
Give kudos to tab author, rate the tab!
1 2 3 4 5
comments
print report bad tab
guest
Wanna post a correction for this tab? Suggest correction