Oops, an error
Loading. Please wait.

Morir Todavía tab

version 1
version 1

Whole song

Interactive

50 views 1 this week
no commentswrite comment
1 2 3 4 5
3 more votes to show rating
add to favorites
×
Save as Personal and add changes to this tab that will be seen only by you. Learn more ›
×
You can save this tab as Personal to edit and correct it or add notes. All changes will be seen only by you. Learn more »
launch autoscroll
font size
0
reset
how to read this tab
guitar tuner
edit
Autoscroll
slow
fast
+/-
esc
set tempo
stop
AQUI LES VA UNA "CORRECCION" A LAS OTRAS VERSIONES QUE HAY AKI DE
ESTA CANCION, INCLUYO TMB EL SOLO, ESPERO Q LES SIRVA.


 b = bend medio tono
 ) = bend 1 tono completo
r/ = reverse bend(bend hacia abajo)
b/ = bend 1/2 tono y soltar(bend medio tono hacia arriba y regresa a
                    la nota donde surgio el bend)
 ) = bend 1 tono completo y soltar
 h = hammer-on
 p = pull-off
 / = slide
 + = Tremolo pick(toca c/uña hacia abajo y hacia arriba muy rapido)
 v = vibrato


___________________________________________________________
*Intro:


e|-------------------2---------5------3---5-2---|
B|---------7----3h5----5-3-5------2h3---5-----5-|
G|4+-4-4-4---4---------------6------------------|


e|------------------------2----------5-----7---7-|
B|------------------3-5-----5-3-5------2h3---5---|
G|4---4---4---4-4-----------------6--------------|

_____________________________________________________________
*Estrofa:

 ->(aki solo marca el acorde(abierto) con distorcion)
           Bm            D
lo más pequeño es un misterio
         A           G
y lo sagrado tan sencillo

 ->(aki empieza "arpegiar" los acordes)
     Bm            D               A            G
el llanto de los nopales junto al húsar de la muerte
             Bm               D
cuando el coyote llamó a tu puerta
        A         G
aulló notas malvenidas
     Bm            D              A           G
las sombras arrebatadas para el sueño de los justos...

_____________________________________________________________
*Puente:

  E                               E              B
e|-------------------------------|-------------------------------|
B|----5--5-5-5-5-5-5-5-5-5-5-5-5-|----5--5-5-5-5-----------------|
G|----4--4-4-4-4-4-4-4-4-4-4-4-4-|----4--4-4-4-4-4-4-4-4-4-4-4-4-|
D|2---2--2-2-2-2-2-2-2-2-2-2-2-2-|2---2--2-2-2-2-4-4-4-4-4-4-4-4-|
A|-------------------------------|---------------2-2-2-2-2-2-2-2-|
E|-------------------------------|-------------------------------|

E                       E           B
   no se puede encerrar el sol bajo una campana
E                      E          B
   no se puede aplazar la hora señalada

___________________________________________________________
*Esto que sigue es la variacion de la intro que se hace
 despues del puente:

e|------------------2-------5-----7---7/15-15-15-|
B|---------7---3-h5---5-3-----2h3---5------------|
G|4+-4-4-4---4------------6----------------------|


e|----5---------5---------5-------3-5-3-|
B|--7---7-4-2h3---5-3-2h3---5-2h3-------|
G|4-------------------------------------|

___________________________________________________________

*en la segunda estrofa repite el mismo patron de la primera

*luego va el puente otra vez
___________________________________________________________

*en el coro solo marca el acorde:

A5    G#5      C#5  B5
 laberinto de sueño
          A5            G#5             C#5   B5
donde se pierden los demonios de la memoria

 *(escribo los acordes como "5" solo para la guitarra)

___________________________________________________________

SOLO:

ESTA PARTE COMIENZA CON UN ARREGLO EN EL BAJO Q VA MAS O MENOS ASI:

  Bm               D                A                G
G|----------------|----------------|----------------|---------------
D|0-0---0-0---0---|0-0---0-0---0---|----------------|---------------
A|----2-----2---2-|----0-----0---0-|0-0---0-0---0---|---------------
E|----------------|----------------|----0-----0---0-|3-3-0-3-3-0-3-0

(eso lo hace 2 veces y luego entra la guitarra mientras el bajo
continua haciendo su arreglo)


*solo
e|-------------------------------------------------------------
B|---------------------------2)-2b/-p0--------------------7-7-7-
G|4/2/4-2h4-2h4-2h4-4p2------2)-2b/-p0--------------------7-7-7-
D|4/2/4-2h4-2h4-2h4-4p2----------------5v-4b/-----------4-------
A|----------------------2r/-------------------4-5-2v--5---------
E|--------------------------------------------------------------


e|----------------------5---5---5---5)-5b-5b-5b-5)/-5h7-5h7-5h7-7p5
B|----------------------5-5-5---5---5)-5b-5b-5b-5)/-5h7-5h7-5h7-7p5
G|6h7-6h7-6h7-7p6-6-6-7-------7---7--------------------------------
D|7---7---7---7---7-7-7--------------------------------------------
A|-----------------------------------------------------------------
E|-----------------------------------------------------------------

e|----7-5-----5-------10-------10--------------------------------------
B|5h7-----5h7---8-------------------------------7-10--10-10/8/7/5/3-0-0
G|----------------8h9)---9b/-9)----9b/-7---7-9----9---9--9-/7/6/4/2-2-0
D|---------------------------------------9-----------------------------
A|---------------------------------------------------------------------
E|---------------------------------------------------------------------

____________________________________________________________________

* Luego de esto solo toca el puente, despues el coro
*la cancion termina asi

            C#5  B5          C#5   B5 - C#5
...de LA memoria    de LA memoria


*********cualkier duda escribanme a theska_boy@

            
            
Suggest correction
Creating personal tab
Creating personal tab
You can edit any tab online and save it as your Personal.

You can edit, replace or remove any tab part or add personal notes – all changes will be seen only by you.

Personal tabs can be accessed anytime from any device, even offline.
Learn more »
Give kudos to tab author, rate the tab!
1 2 3 4 5
comments
print report bad tab
guest
Wanna post a correction for this tab? Suggest correction