Oops, an error
Loading. Please wait.

Morir Todavía tab

version 2
version 2

Whole song

Interactive

64 views 1 this week
no commentswrite comment
1 2 3 4 5
3 more votes to show rating
add to favorites
×
Save as Personal and add changes to this tab that will be seen only by you. Learn more ›
×
You can save this tab as Personal to edit and correct it or add notes. All changes will be seen only by you. Learn more »
launch autoscroll
font size
0
reset
how to read this tab
guitar tuner
edit
Autoscroll
slow
fast
+/-
esc
set tempo
stop
Standar tuning

Gtr 1  (ligera distorsion)
e----------2------------------------5--------------------5---------|
b--------3---3-------5-7p5--5-------5------------------7---7-------|
g--4-4-4----------4/7-----7---6-----6------6-------6h7-------------|
d------------------------------------------------------------------|
a------------------------------------------------------------------|
e------------------------------------------------------------------|
                                                                   |
gtr 2  [distor]                                                    |
-------------------------------------------------------------------|
-------------------------------------------------------------------|
---4-4-4-4-4-4-4-4--7-7-7-7-7-7-7-7--------------------------------|
---4-4-4-4-4-4-4-4--7-7-7-7-7-7-7-7-7-7-7-7-7-7-7-7-5-5-5-5-5-5-5-5|
---2-2-2-2-2-2-2-2--5-5-5-5-5-5-5-5-7-7-7-7-7-7-7-7-5-5-5-5-5-5-5-5|
------------------------------------5-5-5-5-5-5-5-5-3-3-3-3-3-3-3-3|
p.m................................................................|


Gtr1
---------2----------------------5-------7----5--|
-------3---3-------5-7p5---5----5---------------|
-----4---------4/7-------7---6--6-6-6h7----7----|
------------------------------------- ^ --------|
------------------------------------en este punto sostener la nota
------------------------------------------------|
                                                |
gtr 2 hace el mismo ritmico                     |
                                                |
Bm ////////// D///////// A////////// G//////////|
p.m.............................................|


VERSO

gtr 1 (tono limpio)

   Bm                 D             A             G
----2^----------------2^------------0^------------3^-------|
----3^----------------3^------------2^------------0^-------|
----4^----------------2^------------2^------------0^-------|
----4^----------------0^------------2^------------0^-------|
----2^------------------------------0^------------2^-------|
--------------------------------------------------3^-------|
 Lo mas pequeño es un misterio y lo sagrado............... |
                                                           |
(tocar una sola vez la nota de arriba para abajo)          |
                                                           |
gtr 2 [distorsion]                                         |
     a.h...................................................|
-----------------------------------------------------------|
-----19----------------------------------------------------|
-------------------------19-----------------12-------12-12-|
---------------------------19-------------12---------------|
-----------------------------------------------------------|
-----------------------------------------------------------|


gtr 1

   Bm                 D             A             G
----2^----------------2^------------0^------------3^-------|
----3^----------------3^------------2^------------0^-------|
----4^----------------2^------------2^------------0^-------|
----4^----------------0^------------2^------------0^-------|
----2^------------------------------0^------------2^-------|
--------------------------------------------------3^-------|
El llanto de los nopales junto al husar.......             |
                                                           |
(tocar una sola vez la nota de arriba para abajo)          |
                                                           |
gtr 2                                                      |
     a.h...................................................|
---------19------------------------------------------------|
-----------------------------------------------------------|
-------------------------19-----------------12-------12-12-|
---------------------------19-------------12---------------|
-----------------------------------------------------------|
-----------------------------------------------------------|

gtr 1

   Bm                 D             A             G
----2^----------------2^------------0^------------3^-------|
----3^----------------3^------------2^------------0^-------|
----4^----------------2^------------2^------------0^-------|
----4^----------------0^------------2^------------0^-------|
----2^------------------------------0^------------2^-------|
--------------------------------------------------3^-------|
Cuando el coyote llamo a tu puerta.......                  |
                                                           |
gtr 2 (tono limpio)                                        |
                                                           |
   Bm                 D             A             G        |
----2^-----2----------2^----2-------0^----0-------3^---3---|
----3^------3---------3^------3-----2^------2-----0^--0----|
----4^----------------2^------------2^------------0^-------|
----4^----------------0^------------2^------------0^-------|
----2^------------------------------0^------------2^-------|
--------------------------------------------------3^-------|


gtr 1

   Bm                 D             A             G
----2^----------------2^------------0^------------3-3-3-3-3-3-3-3-3|
----3^----------------3^------------2^------------0-0-0-0-0-0-0-0-0|
----4^----------------2^------------2^------------0-0-0-0-0-0-0-0-0|
----4^----------------0^------------2^------------0-0-0-0-0-0-0-0-0|
----2^------------------------------0^------------2-2-2-2-2-2-2-2-2|
--------------------------------------------------3-3-3-3-3-3-3-3-2|
Las sombras arrebatadas para el sueño de los justos..              |
                                                                   |
gtr 2                                             ( aqui distor)   |
                                                                   |
   Bm                 D             A             G                |
----2^-----2----------2^----2-------0^----0-------3-3-3-3-3-3-3-3-3|
----3^------3---------3^------3-----2^------2-----3-3-3-3-3-3-3-3-3|
----4^----------------2^------------2^------------4-4-4-4-4-4-4-4-4|
----4^----------------0^------------2^------------5-5-5-5-5-5-5-5-5|
----2^------------------------------0^------------5-5-5-5-5-5-5-5-5|
--------------------------------------------------3-3-3-3-3-3-3-3-3|


gtr 1 y 2  [distor]

Puente
-----------------------|------------------------------
-----------------------|------------------------------
--9-9-9-9-9-9-9-9-9-9-9|-9-9-9-9-9--------------------
--9-9-9-9-9-9-9-9-9-9-9|-9-9-9-9-9-9-9-9-9-9-9--------
--7-7-7-7-7-7-7-7-7-7-7|-7-7-7-7-7-9-9-9-9-9-9--------
-----------------------|-----------7-7-7-7-7-7--------

No se puede encerrar el sol bajo__una campana

No se puede apla za_____r  la__  hora señalada 

(mucho cuidado aqui el cambio debe ser a medio compas)!!

Luego regresamos a la introduccion la cual lleva variaciones muy pequeñas
y luego el otro verso con el mismo ritmo e igual lleva variaciones pequeñas
luego una vez mas el puente 
y llegamos al coro al fin


Gtr 1 (limpio)
---5-5-5-5------4-4-4-4------4-4-4-4------2-2-2-2------
---5-5-5-5------4-4-4-4------5-5-5-5------4-4-4-4------
---6-6-6-6------4-4-4-4------4-4-4-4------4-4-4-4------
---7-7-7-7------6-6-6-6------6-6-6-6------4-4-4-4------
---7-7-7-7------6-6-6-6------4-4-4-4------2-2-2-2------
---5-5-5-5------4-4-4-4--------------------------------


gtr 2 (distorsion)
---5-------------4-----------4------------2------------
---5-------------4-----------5------------4------------
---6-------------4-----------4------------4------------
---7-------------6-----------6------------4------------
---7-------------6-----------4------------2------------
---5-------------4-------------------------------------
Laberinto del sueño............

La guitarra uno rasguea y la dos hace power chords con distorsion

cuando termina este coro termina con B

---2-2-2-2-2-2-2-2-2/-/------
---4-4-4-4-4-4-4-4-4/-/------
---4-4-4-4-4-4-4-4-4/-/------
---4-4-4-4-4-4-4-4-4/-/------
---2-2-2-2-2-2-2-2-2/-/------
---------------------------
de la memoria_______


el solo lleva esto:

un tiempo con bateria y bajo luego entra la guitarra haciendo esto con dist.
-------------------------------------------------------------------------
-------------------------------------------------------------------------
-------------------------------------------------------------------------
-------------------------------------------------------------------------
--2-2-2-2-2-2-2-222--5-5-5-5-5-5-5-5-------------------------------------
--------------------------------------5-5-5-5-5-5-5-555--3-3-3-3-3-3-3-3-
p.m.......................................................................
los numeros que estan muy juntos son punteados muy rapidos para hacer el cambio

el solo todavia no esta terminado pero si quieren tocar esta cancion en vivo 
les recomiendo que saquen el suyo ya que este solo lleva slide y da mucha hueva
pero lo dejo a su criterio, a parte de todo a mi no me gusta
como se escucha por eso lo cambio a si que solo 
pondre el principio:

-----------------------------------------------------------
-----------------------------------------------------------
----2/-4-4-4-4-4/2-----2/7-7/8/7-/5/4----------------------
----2/-4-4-4-4-4/2-----2/7-7/8/7-/5/4--5/4------------4/7--
--------------------------------------------5/2---2/5------
-----------------------------------------------------------

en las primeras notas deben de regresar al 2o traste y en casi todas
las notas deben de hacer vibrato (no los puse por falta de espacio)

y regresan al puente 

no se debe encerrar.......


y luego hacen el coro dos veces mas 

!!! en el cambio de la primera vez que tocan el coro a la segunda vez lleva esto

------------
------/14+++
------/14+++
------/14+++
------------
------------
como no sabia como poner el tremolo picking (tocarlas muchas veces muy rapido)
puse los signos de mas, de seguro reconoceran esta parte
 y pues al final solo repitan 

B       C#m7         B       C#m7      B         
de LA memoria de LA  memoria de LA memoria___________

y terminan como les plazca
y eso es todo cualquier duda por favor mandenla a

mirsha_joker@

Mirsha Carrillo Gonzalez
Saludos desde Mexico

            
            
Suggest correction
Creating personal tab
Creating personal tab
You can edit any tab online and save it as your Personal.

You can edit, replace or remove any tab part or add personal notes – all changes will be seen only by you.

Personal tabs can be accessed anytime from any device, even offline.
Learn more »
Give kudos to tab author, rate the tab!
1 2 3 4 5
comments
print report bad tab
guest
Wanna post a correction for this tab? Suggest correction