Oops, an error
Loading. Please wait.

No Más Lágrimas bass

version 1
version 1

Whole song

Interactive

112 views 1 this week
no commentswrite comment
1 2 3 4 5
3 more votes to show rating
add to favorites
×
Save as Personal and add changes to this tab that will be seen only by you. Learn more ›
×
You can save this tab as Personal to edit and correct it or add notes. All changes will be seen only by you. Learn more »
launch autoscroll
font size
0
reset
guitar tuner
edit
Autoscroll
slow
fast
+/-
esc
set tempo
stop
Versión del tour 2007

Silencio! he oido una voz
es posible que alguien se acuerde de mí
no puedo, trágica luz
siento tus ojos ocultos en nombres
tantos nombres.


G||------------------|
D||------------------|
A||------------------|
E||-1---1------------|

 Aunque el aire no sepa que ocurre

el viento, se lleva lo que acontece


G||---------------|------------------|------------------|----------------|
D||---------------|------------------|------------------|----------------|
A||-3-----3-------|--0-------0-------|-3------3---------|--0-------0-----|
E||---------------|------------------|------------------|----------------|


 Silencio! ....    quería encontrarme.. el miedo..        solo un segundo


G||----------------|------------------|------------------|---------------|
D||----------------|------------------|------------------|---------------|
A||-0-----0--------|------------------|------------------|---------------|
E||----------------|--1-------1-------|-1------1---------|-1-1-----------|

               tan   vacío.                                (corte)


Aunque el aire no sepa que ocurre

el viento te arrastrará

te arrastrará


G||----------------|------------------|------------------|---------------|
D||----------------|------------------|------------------|---------------|
A||----------------|---5--/---0-------|------------------|--5---/----0---|
E||-1--/----0------|------------------|-1---/----0-------|---------------|

(aca arrastra las notas)

  No, no puedo oír  tu voz, siempre lejana            oh no, tan lejana


G||----------------|------------------|------------------|--------------|
D||----------------|------------------|------------------|--------------|
A||-3-3-3-3-3-3/8--|--8-8-8-8-8-8-8-8-|-10--10--10--10---|-12-12-12-12/3|X2
E||----------------|------------------|------------------|--------------|


G||----------------|------------------|------------------|--------------|
D||----------------|------------------|------------------|--------------|
A||----------------|---5--/---0-------|------------------|--5---/----0--|
E||-1--/----0------|------------------|-1---/----0-------|--------------|


  No, no quiero oír tu voz,siempre quebrada           oh, no...


G||---------------|--------------|----------------|------------------|
D||---------------|--------------|----------------|------------------|
A||-3-3-3-3-3-3-3-|--------------|----------------|------------------|X4
E||---------------|-3-3-3-3-3-3-3|-0-0-0-0-0--0-0-|-3-3-3-3-3-3-3-3-3|


 No puedo      dormir con esas lágrimas          goteando encima de mí

 No puedo      dormir con esas lágrimas          goteando encima de mí

 No puedo      dormir con esas lágrimas          goteando encima de mí

 No puedo      dormir con esas lágrimas          goteando encima de mí


G||------------------|------------------|------------------|-------------|
D||------------------|------------------|------------------|-------------|
A||---0---3----------|-3----------------|-0---3------------|-3---------3-|
E||-----------3------|---3-3------------|-----------3------|---3-1-------|

            
            
Suggest correction
Creating personal tab
Creating personal tab
You can edit any tab online and save it as your Personal.

You can edit, replace or remove any tab part or add personal notes – all changes will be seen only by you.

Personal tabs can be accessed anytime from any device, even offline.
Learn more »
Give kudos to tab author, rate the tab!
1 2 3 4 5
comments
print report bad tab
guest
Wanna post a correction for this tab? Suggest correction