Oops, an error
Loading. Please wait.

Nuestros Nombres tab

version 1
version 1

Whole song

Interactive

228 views 3 this week
no commentswrite comment
1 2 3 4 5
3 more votes to show rating
add to favorites
×
Save as Personal and add changes to this tab that will be seen only by you. Learn more ›
×
You can save this tab as Personal to edit and correct it or add notes. All changes will be seen only by you. Learn more »
launch autoscroll
font size
0
reset
how to read this tab
guitar tuner
edit
Autoscroll
slow
fast
+/-
esc
set tempo
stop
Tablatura Realizada: Josué Emmanuel B. González.

Bueno esta rola de heroes del silecio, es buena para aquellos amantes, de aventuras.

Te dedico esta canción, Diana Patricia.


Intro:

E-----------------------------------------------------------------------------------------
B-----------------------------------------------------------------------------------------
G-----------------------------------------------------------------------------------------
D-----------------------------------------------------------------------------------------
A---2--2-2--0--2----2h-----2-2--0--2----2h-----2-2--0--2----3h-----2---0------3--2---0----
E-------------------------------------------------------------------------3------------3--


E-----------------------------------------------------------------------------------------
B-----------------------------------------------------------------------------------------
G-----------------------------------------------------------------------------------------
D-----------------------------------------------------------------------------------------
A---2--2-2--0--2----2h-----2-2--0--2----2h-----2-2--0--2----3h-----2---0------3--2---0----
E-------------------------------------------------------------------------3------------3--


E-----------------------------------------------------------------------------------------
B-----------------------------------------------------------------------------------------
G-----------------------------------------------------------------------------------------
D-----------------------------------------------------------------------------------------
A---2--2-2--0--2----2h-----2-2--0--2----2h-----2-2--0--2----3h-----2---0------3--2---0----
E-------------------------------------------------------------------------3------------3--


E---7h------7--5------7h------8h---10-8---------------0-------0---------------------------
B----------------------------------------10-8---7-8-7-------------------------------------
G---------------------------------------------------------7--------5h---5h-h--5h----------
D-----------------------------------------------------------------------------------------
A-----------------------------------------------------------------------------------------
E-----------------------------------------------------------------------------------------


E--------------
B--------------
G----5h--------
D----5---------
A----3h--------
E--------------


riff1 con verso 1:

E-----------------------------------------------------------------------------------------
B-----------------------------------------------------------------------------------------
G-----------------------------------------------------------------------------------------
D-----------------------------------------------------------------------------------------
A---2---2-2--2-2--2-2------2-2---2-2---2-2--2-2------2-2---2-2---2-2---2-2----------------
E-----------------------------------------------------------------------------------------

E-----------------------------------------------------------------------------------------
B-----------------------------------------------------------------------------------------
G-----------------------------------------------------------------------------------------
D-----------------------------------------------------------------------------------------
A---2-2---2-2---2-2---2-2----2-2---2-2---2-2---2-2----2-2---2-2---2-2---2-2---------------
E-----------------------------------------------------------------------------------------


E-----------------------------------------------------------------------------------------
B-----------------------------------------------------------------------------------------
G-----------------------------------------------------------------------------------------
D-----------------------------------------------------------------------------------------
A---2-2---2-2---2-2---2-2----2-2---2-2---2-2---2-2----2-2---2-2---2-2---2-2---------------
E-----------------------------------------------------------------------------------------


E----------------------------------------------------
B----------------------------------------------------
G----------------------------------------------------
D----------------------------------------------------
A---2-2---2-2---2-2---2-2----2-2---2-2---2-2---2-3---
E----------------------------------------------------


E-----------------------------------------------------------3h-------0----0---------------
B-----------------------------------------------------------2h----------3----3--0---3---0-
G-----------------------------------------2h-------2h-------3h----------------------------
D-----------------------------------------2h-------2h-------------------------------------
A---2-3-2-3---2---3----2---0--------------0h-------0h-------------------------------------
E-------------------------------3---------------------------------------------------------


Primer solo:

E---------------------------------------------------------------------------------------------
B---------------------------------------------------------------------------------------------
G---------------------------------------------------------------------------------------------
D---4------------------4h----------------------------------------------------------5----------
A---2----2-2--0---2---2h------2-2--0--2----2h-----2-2--0-2----3h----2-3-2---0------3----3--2-0
E------------------------------------------------------------------------------3--------------


Riff 2 con verso 2:

E------------------------------------------------------------------------------------------
B------------------------------------------------------------------------------------------
G------------------------------------------------------------------------------------------
D------------------------------------------------------------------------------------------
A--2---2-2--2-2----2-2---2-2---2-2---2-2----2-2---2-2---2-2---2-2----2-2---2-2---2-2---2-2-
E------------------------------------------------------------------------------------------


E-----------------------------------------------------------------------------------------
B-----------------------------------------------------------------------------------------
G-----------------------------------------------------------------------------------------
D-----------------------------------------------------------------------------------------
A--2-2---2-2---2-2----2-2-----2-2---2-2---2-2---2-2----2-2---2-2---2-2---2-3--------------
E-----------------------------------------------------------------------------------------


E-----------------------------------------------------------------------------------------
B-----------------------------------------------------------------------------------------
G-----------------------------------------------------------------------------------------
D-----------------------------------------------------------------------------------------
A--2--3--2--0-------3---2--3--2--0-----------2----2-2---2-2---2-2---2-2------2-2---2-2----
E---------------3--------------------3----------------------------------------------------


E---------------------------------------
B---------------------------------------
G---------------------------------------
D---------------------------------------
A--2-2---2-2-----2-2---2-2---2-2---2-2--
E---------------------------------------


Riff 3 verso 3:

E----------------------------------------------2--------3--------2---0-------
B------------------------------------------------------------------------3---
G---------0----------------------------2-----------2-------2-----------------
D---4-------------4--2--0----5h----------------------------------------------
A------2------2--------------5h----------------------------------------------
E----------------------------3h----------------------------------------------


E--------------------------------------------------------------------1------3--1--0-------
B----------------0--------2--------3--2--0-------4h----------4-----------0----------------
G---4h-------------------------------------------3h------3-------3------------------------
D---4h------4---------4-------4------------------1h-----------------------------------5h--
A---2h--------------------------------------------------------------------------------5h--
E-------------------------------------------------------------------------------------3h--


E----------------------------------------------------------------------------------2------
B------------------------------------------------0-------2-----3-1-0-----3h---------------
G---------0------2------3--2--0------4h----------------------------------2h----2------2---
D--0---------0------0----------------4h-----4--------4------4------------0h---------------
A------------------------------------2h---------------------------------------------------
E-----------------------------------------------------------------------------------------


                                                                 Segundo solo.

E--0----------0-------------------3-----5-----3-2-0----3-----3------7h----7--5----7h----8-
B---------3------3------5h-----0-----0-----0-----------3-----3----------------------------
G-----2-----------------4h-----------------------------0-----0----------------------------
D-----------------------2h-----------------------------------0----------------------------
A-----------------------------------------------------------------------------------------
E-----------------------------------------------------------------------------------------


E--8-7-5---3---2-3-2--0-----0--
B------------------------3-----
G------------------------------
D------------------------------
A------------------------------
E------------------------------


riff 4 verso 4:

E-----------------------------------------------------------------------------------------
B-----------------------------------------------------------------------------------------
G-----------------------------------------------------------------------------------------
D-----------------------------------------------------------------------------------------
A---2---2-2--2-2--2-2------2-2---2-2---2-2--2-2------2-2---2-2---2-2---2-2----------------
E-----------------------------------------------------------------------------------------

E-----------------------------------------------------------------------------------------
B-----------------------------------------------------------------------------------------
G-----------------------------------------------------------------------------------------
D-----------------------------------------------------------------------------------------
A---2-2---2-2---2-2---2-2----2-2---2-2---2-2---2-2----2-2---2-2---2-2---2-2---------------
E-----------------------------------------------------------------------------------------


E-----------------------------------------------------------------------------------------
B-----------------------------------------------------------------------------------------
G-----------------------------------------------------------------------------------------
D-----------------------------------------------------------------------------------------
A---2-2---2-2---2-2---2-2----2-2---2-2---2-2---2-2----2-2---2-2---2-2---2-2---------------
E-----------------------------------------------------------------------------------------


E----------------------------------------------------
B----------------------------------------------------
G----------------------------------------------------
D----------------------------------------------------
A---2-2---2-2---2-2---2-2----2-2---2-2---2-2---2-3---
E----------------------------------------------------


E-----------------------------------------------------------3h-------0----0---------------
B-----------------------------------------------------------2h----------3----3--0---3---0-
G-----------------------------------------2h-------2h-------3h----------------------------
D-----------------------------------------2h-------2h-------------------------------------
A---2-3-2-3---2---3----2---0--------------0h-------0h-------------------------------------
E-------------------------------3---------------------------------------------------------


Primer solo:
E---------------------------------------------------------------------------------------------
B---------------------------------------------------------------------------------------------
G---------------------------------------------------------------------------------------------
D---4-----------------4h-----------------------------------------------------------5----------
A---2----2-2--0---2---2h------2-2--0--2----2h-----2-2--0-2----3h----2-3-2---0------3----3--2-0
E------------------------------------------------------------------------------3--------------


Riff 5 verso 5:

E------------------------------------------------------------------------------------------
B------------------------------------------------------------------------------------------
G------------------------------------------------------------------------------------------
D------------------------------------------------------------------------------------------
A--2---2-2--2-2----2-2---2-2---2-2---2-2----2-2---2-2---2-2---2-2----2-2---2-2---2-2---2-2-
E------------------------------------------------------------------------------------------


E-----------------------------------------------------------------------------------------
B-----------------------------------------------------------------------------------------
G-----------------------------------------------------------------------------------------
D-----------------------------------------------------------------------------------------
A--2-2---2-2---2-2----2-2-----2-2---2-2---2-2---2-2----2-2---2-2---2-2---2-3--------------
E-----------------------------------------------------------------------------------------


E-----------------------------------------------------------------------------------------
B-----------------------------------------------------------------------------------------
G-----------------------------------------------------------------------------------------
D-----------------------------------------------------------------------------------------
A--2--3--2--0-------3---2--3--2--0-----------2----2-2---2-2---2-2---2-2------2-2---2-2----
E---------------3--------------------3----------------------------------------------------


E------------------------------------------------------------------------
B------------------------------------------------------------------------
G------------------------------------------------0-----------------------
D------------------------------------------4-------------4--2--0----5h---
A--2-2---2-2-----2-2---2-2---2-2---2-2--------2------2--------------5h---
E-------------------------------------------------------------------3h---


E-------------2--------3--------2---0-------
B---------------------------------------3---
G-----2-----------2-------2-----------------
D-------------------------------------------
A-------------------------------------------
E-------------------------------------------


E--------------------------------------------------------------------1------3--1--0-------
B----------------0--------2--------3--2--0-------4h----------4-----------0----------------
G---4h-------------------------------------------3h------3-------3------------------------
D---4h------4---------4-------4------------------1h-----------------------------------5h--
A---2h--------------------------------------------------------------------------------5h--
E-------------------------------------------------------------------------------------3h--


E----------------------------------------------------------------------------------2------
B------------------------------------------------0-------2-----3-1-0-----3h---------------
G---------0------2------3--2--0------4h----------------------------------2h----2------2---
D--0---------0------0----------------4h-----4--------4------4------------0h---------------
A------------------------------------2h---------------------------------------------------
E-----------------------------------------------------------------------------------------


E--0----------0-------------------3-----5-----3-2-0----3-----3----------------------------
B---------3------3------5h-----0-----0-----0-----------3-----3----------------------------
G-----2-----------------4h-----------------------------0-----0----------------------------
D-----------------------2h-----------------------------------0----------------------------
A--------------------------------------------------------------------2---2-2--0--2----2---
E-----------------------------------------------------------------------------------------


E-------------------------------------------------------------------------------3---------
B-----------------------------------------------------------------5------5------3---------
G-------------------2h--------------------------------------------4------4------0---------
D-------------------0h-----0-0-----0--0h--------0--0---0---0------2------2------0-------0-
A--2---2-2--0--2----------------0----------------------0----------------------------------
E-----------------------------------------------------------------------------------------


E-----------------------------------------------------------------------------------------
B------------------------------------------------------0----------------------------------
G------------------------------------------------------------2---------------4h-----------
D---4--0--4--0--4--2--2--------------------0-----------------------4--2--0---4h-----------
A------------------------2-2-----2----2-2-----2---2-------2-----2------------2h-----------
E-----------------------------------------------------------------------------------------


E-----------------------------------------------------------------------------------------
B-------------------------------------------------------------------------------0---------
G----------------------------------0--------------------------------------------------2---
D-------------0-------------4-------------4--2--0-------------------0---------------------
A----2---2-2-----2----2---------2------2------------2------2---2-2-----2----2------2----2-
E-----------------------------------------------------------------------------------------


Solo:

E-----------------------------------------------------------------------------------------
B-----------------------------------------------------------------------------------------
G---------------4h------------------------------------0----------------2h--------2h---2h--
D----4-2---0----4h----------------0------------4-----------4--2--0-----2h--------2h---2h--
A---------------2h-------2---2-2-----2----2--------2-----2-------------0h--------0h---0h--
E-----------------------------------------------------------------------------------------


E-----------------------------------------------------------------------------------------
B-----------------------------------------------------------------------------------------
G--2h--------2h---2h-----------2h---------2h---2h-----------2h--------2h---2h-------------
D--2h--------2h---2h-----------2h---------2h---2h-----------2h--------2h---2h-------------
A--0h--------0h---0h-----------0h---------0h---0h-----------0h--------0h---0h-------------
E-----------------------------------------------------------------------------------------


E-----------------------------------------------------------------------------------------
B-----------------------------------------------------------------------------------------
G--7----------------------7h-----9--9---x-x---7---9---7---9h--------9---9-----9---7---9h--
D--7------9--x---7---9----7h-----9--9---x-x---7---9---7---9h--------9---9-----9---7---9h--
A---------9--x---7---9--------------------------------------------------------------------
E-----------------------------------------------------------------------------------------


E-----------------------------------------------------------------------------------------
B---3------------------------7----9--7--9---7--9--7--10h------10--10-----9--7/10h---------
G---7---9/7------------------7----9--7--9---7--9--7--11h------11--11--9--9--7/10h---------
D-----------9--7--9-----------------------------------------------------------------------
A-----------------------------------------------------------------------------------------
E-----------------------------------------------------------------------------------------


E-----------------------7-------------7---------------------------------7-----------------
B---10-10-----9-9-------7-------------7------------------------------7--------10--10---7--
G---11-11--9--9-9--9-------9--7-9--9-----------7-9--7-9--7-----7-9------------------------
D------------------9---------------9-------7-9--------------9-----------------------------
A-----------------------------------------------------------------------------------------
E-----------------------------------------------------------------------------------------


E-----------9-----7-----------------------------------------------------------------------
B-------------10-----9---7------------10----10------10--9--9--9\7----7--------------------
G----9--x----------------7------11-11----11----11---11--9--9--9\7----7----7--9--9--7------
D--------------------------------------------------------------------------------------9--
A-----------------------------------------------------------------------------------------
E-----------------------------------------------------------------------------------------


E-----------------------------------------------------------------------------------------
B-----------------------------------------------------------------------------------------
G--7------------------------4----------------------------------------------------4--------
D------9--------4---5---4--------2-------5---4---2-4---5---4--4------4---5---4-------2----
A-------------2---2----2--2----2-----------2---2-------2---2--2----2---2---2---2---2------
E-----------------------------------------------------------------------------------------


E------------------------------------------------------3h------------2-----3----2--0------
B------------------------------------------------------3h-----------------------------3---
G------------------------------------------------------0h-----2---------2----2------------
D---5---4----2-4---5----4--4---------------------------0h---------------------------------
A-----2---2--------2----2--2--------------------------------------------------------------
E-----------------------------------------------------------------------------------------


Riff 7 verso 7:

E--------------------------------------------------------------------1------3--1--0-------
B----------------0--------2--------3--2--0-------4h----------4-----------0----------------
G---4h-------------------------------------------3h------3-------3------------------------
D---4h------4---------4-------4------------------1h-----------------------------------5h--
A---2h--------------------------------------------------------------------------------5h--
E-------------------------------------------------------------------------------------3h--


E----------------------------------------------------------------------------------2------
B------------------------------------------------0-------2-----3-1-0-----3h---------------
G---------0------2------3--2--0------4h----------------------------------2h----2------2---
D--0---------0------0----------------4h-----4--------4------4------------0h---------------
A------------------------------------2h---------------------------------------------------
E-----------------------------------------------------------------------------------------


E--0----------0-------------------3-----5-----3-2-0----3-----3----------------------------
B---------3------3------5h-----0-----0-----0-----------3-----3----------------------------
G-----2-----------------4h-----------------------------0-----0----------------------------
D-----------------------2h-----------------------------------0----------------------------
A--------------------------------------------------------------------2---2-2--0--2----2---
E-----------------------------------------------------------------------------------------


E-------------------------------------------------------------------------------3---------
B-----------------------------------------------------------------5------5------3---------
G-------------------2h--------------------------------------------4------4------0---------
D-------------------0h-----0-0-----0--0h--------0--0---0---0------2------2------0-------0-
A--2---2-2--0--2----------------0----------------------0----------------------------------
E-----------------------------------------------------------------------------------------


E-----------------------------------------------------------------------------------------
B------------------------------------------------------0----------------------------------
G------------------------------------------------------------2---------------4h-----------
D---4--0--4--0--4--2--2--------------------0-----------------------4--2--0---4h-----------
A------------------------2-2-----2----2-2-----2---2-------2-----2------------2h-----------
E-----------------------------------------------------------------------------------------


E-----------------------------------------------------------------------------------------
B-----------------------------------------------------------------------------------------
G-----------------------------------------------------------------------------------------
D-------------0---------------------------------------------------------------------------
A----2---2-2-----2----2-------3-----2-3---2---0---------3----2-3--2----0----------2-------
E-------------------------------------------------3-----------------------3---------------


Final:

Se toca con una guitarra limpia.


E-----2-------------1-----------0-----------------------------2-----------1---------------
B--------3--0---------3--0--------3---0---------0---------------3--0--------3--0----------
G-----------------------------------------------------------------------------------------
D---------------------------------------------------4-------------------------------------
A---------------------------------------------2-------2h----------------------------------
E-----------------------------------------------------------------------------------------


E---0-----7------------------------2---------2--------2----------1----4----2--------------
B------3-----------0-----------------3--0------3--0----------------3---------3------------
G-----------------------------------------------------------------------------------------
D-----------------------4-----------------------------------------------------------------
A-------------------------2h--------------------------------------------------------------
E----------------7------------------------------------------------------------------------


E--0--------0-------------------------------------------------------------------------------
B----3--------3-----------------------------------------------------------------------------
G------3--------2-------4--------------------------------------------------------------------
D-----------------------4------------------------------------------------------------------
A-----------------------2------------------------------------------------------------------
E-----------------------------------------------------------------------------------------


Riff 1:
                                          
Que extraño aprieta el deseo                 
hoy que lejano aparece el acuerdo            
a kilometros, es tan inalcanzable            
esa mirada me encantaba.                     
aun abriendo en canal el ensueño             
voy con los ojos siempre abiertos.
por aguantar, brindo en silencio

Riff 2:
y no sabemos ni nuestros nombres
no ignoramos nuestros excesos
pero tu sola presencia me enferma
y me vacia.
con un grito de esperanza
te digo adios.


riff 3:
y cada dia le pregunta a su noche
que es lo que haria en su mismo disfraz.
asentir sin haber comprendido
que aquellas manos me asediaban,


riff 4:
dime: ¿querrias tu pintar una casa con alas?
amanecer, unos guiños confusos
dar la vuelta con miedo a mirar atras


riff 5:
y no sabemos ni nuestros nombres
no ignoramos nuestros excesos
pero tu sola presencia me enferma
y me vacia
con un grito de esperanza
te digo adios
al saber
como vacia
y con un grito de esperanza
te digo adios.


riff 6:
y no sabemos ni nuestros nombres
no ignoramos nuestros excesos
pero tu sola presencia me enferma
y me vacia
con un grito de esperanza
te digo adios
al saber
como vacia
y con un grito de esperanza
te digo adios.


h: baja y sube la cuerda, no muy rapido.


Bueno espero que les agrade esta transcripcion, me falta subir la parte en la que acompaña 
Enrique Bunbury y el bajo de la cancion, espero transcrbirlos pronto puesto que es un poco
tardado transcribirlo.

Bueno hasta siempre amigos, esperen la transcripcion de hechizo solo me falta el solo de la 
canción.

            
            
Suggest correction
Creating personal tab
Creating personal tab
You can edit any tab online and save it as your Personal.

You can edit, replace or remove any tab part or add personal notes – all changes will be seen only by you.

Personal tabs can be accessed anytime from any device, even offline.
Learn more »
Give kudos to tab author, rate the tab!
1 2 3 4 5
comments
print report bad tab
guest
Wanna post a correction for this tab? Suggest correction