Oops, an error
Loading. Please wait.

Olvidado tab

version 1
version 1

Whole song

Interactive

55 views 1 this week
no commentswrite comment
1 2 3 4 5
3 more votes to show rating
add to favorites
×
Save as Personal and add changes to this tab that will be seen only by you. Learn more ›
×
You can save this tab as Personal to edit and correct it or add notes. All changes will be seen only by you. Learn more »
launch autoscroll
font size
0
reset
how to read this tab
guitar tuner
edit
Autoscroll
slow
fast
+/-
esc
set tempo
stop
olvidado

INTRO:

1ra guitarra
E--------------------------------|--------------------------------|
B--------------------------------|--------------------------------|
G-4--4-4--4--4-4--4--4-4--4--4-4-|-7--7-7--7--7-7--7--7-7--7--7-7-|
D-4--4-4--4--4-4--4--4-4--4--4-4-|-7--7-7--7--7-7--7--7-7--7--7-7-|
A-2--2-2--2--2-2--2--2-2--2--2-2-|-5--5-5--5--5-5--5--5-5--5--5-5-|
e--------------------------------|--------------------------------|

2da guitarra
E-----------------------------------------------------------------|
B-----------------------------------------------------------------|
G-5\-------------------------------11\--------------x-------------|
D-----------------------------------------------------------------|
A-----------------------------------------------------------------|
e-----------------------------------------------------------------|

1ra guitarra
E--------------------------------|--------------------------------|
B--------------------------------|--------------------------------|
G-4--4-4--4--4-4--4--4-4--4--4-4-|-7--7-7--7--7-7--7--7-7--7--7-7-|
D-4--4-4--4--4-4--4--4-4--4--4-4-|-7--7-7--7--7-7--7--7-7--7--7-7-|
A-2--2-2--2--2-2--2--2-2--2--2-2-|-5--5-5--5--5-5--5--5-5--5--5-5-|
e--------------------------------|--------------------------------|

2da guitarra
E-----------------------------------------------------------------|
B-----------------------------------------------------------------|
G-5\--------------------------------------------------------------|
D----------------------------------7--7-7--7--7-7--7--7-7/--------|
A-----------------------------------------------------------------|
e-----------------------------------------------------------------|


         Bm                       D                 
          Buscando__               entre las sombras
E--------------------------------|--------------------------------|
B--------------------------------|--------------------------------|
G-4--4-4--4--4-4--4--4-4--4--4-4-|-7--7-7--7--7-7--7--7-7--7--7-7-|
D-4--4-4--4--4-4--4--4-4--4--4-4-|-7--7-7--7--7-7--7--7-7--7--7-7-|
A-2--2-2--2--2-2--2--2-2--2--2-2-|-5--5-5--5--5-5--5--5-5--5--5-5-|
e--------------------------------|--------------------------------|

      Bm                          D
     voy sin rumbo__           hacia la luz
E--------------------------------|--------------------------------|
B--------------------------------|--------------------------------|
G-4--4-4--4--4-4--4--4-4--4--4-4-|-7--7-7--7--7-7--7--7-7--7--7-7-|
D-4--4-4--4--4-4--4--4-4--4--4-4-|-7--7-7--7--7-7--7--7-7--7--7-7-|
A-2--2-2--2--2-2--2--2-2--2--2-2-|-5--5-5--5--5-5--5--5-5--5--5-5-|
e--------------------------------|--------------------------------|
 
         Bm                       D
            con la mente__     desnutrida
E--------------------------------|--------------------------------|
B--------------------------------|--------------------------------|
G-4--4-4--4--4-4--4--4-4--4--4-4-|-7--7-7--7--7-7--7--7-7--7--7-7-|
D-4--4-4--4--4-4--4--4-4--4--4-4-|-7--7-7--7--7-7--7--7-7--7--7-7-|
A-2--2-2--2--2-2--2--2-2--2--2-2-|-5--5-5--5--5-5--5--5-5--5--5-5-|
e--------------------------------|--------------------------------|

            Bm                     D
                y cegado__           por mi destino
E--------------------------------|--------------------------------|
B--------------------------------|--------------------------------|
G-4--4-4--4--4-4--4--4-4--4--4-4-|-7--7-7--7--7-7--7--7-7--7--7-7-|
D-4--4-4--4--4-4--4--4-4--4--4-4-|-7--7-7--7--7-7--7--7-7--7--7-7-|
A-2--2-2--2--2-2--2--2-2--2--2-2-|-5--5-5--5--5-5--5--5-5--5--5-5-|
e--------------------------------|--------------------------------|


               Bm                          D      
             Olvidado____               olvidado___ 

 1ra. guirtarra
E----------------------------------------------------------|             
B----------------------------------------------------------|             
G-4--4-4--5-5--6-6--7-7--6-6--5-5--4-4--5-5--6-6-----------|             
D-4--4-4--5-5--6-6--7-7--6-6--5-5--4-4--5-5--6-6---5/7---8-|              
A-2--2-2--3-3--4-4--5-5--4-4--3-3--2-2--3-3--4-4-----------|             
e----------------------------------------------------------|              

 2da. guitarra
E-----------------------------------------------------------|
B--------------(11)------------------------(6)--------------|
G-----------------------------------------------------------|
D-----------------------------------------------------------|
A-----------------------------------------------------------|
e-----------------------------------------------------------|

                Bm                           D
              Olvidado____               olvidado____

 1ra. guirtarra
E----------------------------------------------------------|             
B----------------------------------------------------------|             
G-4--4-4--5-5--6-6--7-7--6-6--5-5--4-4--5-5--6-6-----------|             
D-4--4-4--5-5--6-6--7-7--6-6--5-5--4-4--5-5--6-6---5/7---8-|              
A-2--2-2--3-3--4-4--5-5--4-4--3-3--2-2--3-3--4-4-----------|             
e----------------------------------------------------------|              

 2da. guitarra
E-----------------------------------------------------------|
B--------------(6)-----------------------(11)-(6)-(11)\-----|
G--------------------------------------------------------5\-|
D-----------------------------------------------------------|
A-----------------------------------------------------------|
e-----------------------------------------------------------|


              Bm                        D
              siento el suelo_    bajo el patio_
E--------------------------------|--------------------------------|
B--------------------------------|--------------------------------|
G-4--4-4--4--4-4--4--4-4--4--4-4-|-7--7-7--7--7-7--7--7-7--7--7-7-|
D-4--4-4--4--4-4--4--4-4--4--4-4-|-7--7-7--7--7-7--7--7-7--7--7-7-|
A-2--2-2--2--2-2--2--2-2--2--2-2-|-5--5-5--5--5-5--5--5-5--5--5-5-|
e--------------------------------|--------------------------------|

               Bm                         D
                alguien entra_     en la ventana_
E--------------------------------|--------------------------------|
B--------------------------------|--------------------------------|
G-4--4-4--4--4-4--4--4-4--4--4-4-|-7--7-7--7--7-7--7--7-7--7--7-7-|
D-4--4-4--4--4-4--4--4-4--4--4-4-|-7--7-7--7--7-7--7--7-7--7--7-7-|
A-2--2-2--2--2-2--2--2-2--2--2-2-|-5--5-5--5--5-5--5--5-5--5--5-5-|
e--------------------------------|--------------------------------|

                Bm                          D
      la paloma__                  vuela bajo___
E--------------------------------|--------------------------------|
B--------------------------------|--------------------------------|
G-4--4-4--4--4-4--4--4-4--4--4-4-|-7--7-7--7--7-7--7--7-7--7--7-7-|
D-4--4-4--4--4-4--4--4-4--4--4-4-|-7--7-7--7--7-7--7--7-7--7--7-7-|
A-2--2-2--2--2-2--2--2-2--2--2-2-|-5--5-5--5--5-5--5--5-5--5--5-5-|
e--------------------------------|--------------------------------|

                 Bm                    D
               con   peligro y_      sin venganza_
E--------------------------------|--------------------------------|
B--------------------------------|--------------------------------|
G-4--4-4--4--4-4--4--4-4--4--4-4-|-7--7-7--7--7-7--7--7-7--7--7-7-|
D-4--4-4--4--4-4--4--4-4--4--4-4-|-7--7-7--7--7-7--7--7-7--7--7-7-|
A-2--2-2--2--2-2--2--2-2--2--2-2-|-5--5-5--5--5-5--5--5-5--5--5-5-|
e--------------------------------|--------------------------------|


     Bm                   D       
  Olvidado____           olvidado____ 

 1ra guitarra
E-----------------------------------------------------------|
B-----------------------------------------------------------|
G-4--4-4/-----------------7/--------------------------------|
D-4--4-4/-----------------7/--------------------------------|
A-2--2-2/-----------------5/--------------------------------|
e-----------------------------------------------------------|

 2da guitarra
E-----------------------------------------------------------|
B--------------(11)------------------------(6)--------------|
G-----------------------------------------------------------|
D-----------------------------------------------------------|
A-----------------------------------------------------------|
e-----------------------------------------------------------|

     Bm                       D
   Olvidado_____         olvidado_______

1ra guitarra
E-----------------------------------------------------------|
B-----------------------------------------------------------|
G-4--4-4/-----------------7\-----6--------11----------------|
D-4--4-4/---------------------------------------------------|
A-2--2-2/---------------------------------------------------|
e-----------------------------------------------------------|

 2da guitarra
E-----------------------------------------------------------|
B--------------(6)-----------------------(11)-(6)-(11)\-----|
G-----------------------------------------------------------|
D-----------------------------------------------------------|
A-----------------------------------------------------------|
e-----------------------------------------------------------|

       F#m                       G     
        Olvidado_____         olvidado_______
1ra guitarra
E----------------------------------------------------------------|
B----------------------------------------------------------------|
G----------------------------------------------------------------|
D-2--2-2--2--2-2--2--2-2--2--2-2--5--5-5--5--5-5--5--5-5--5--5-5-|
A----------------------------------------------------------------|
e----------------------------------------------------------------|

 2da guitarra
E-----------------------------------------------------------|
B--------------(6)-----------------------(11)-(6)-(11)\-----|
G-----------------------------------------------------------|
D-----------------------------------------------------------|
A-----------------------------------------------------------|
e-----------------------------------------------------------|

        F#m                        G
        ohhhhh____           ohhhhh_____
1ra guitarra
E----------------------------------------------------------------|
B----------------------------------------------------------------|
G----------------------------------------------------------------|
D-2--2-2--2--2-2--2--2-2--2--2-2--5--5-5--5--5-5--5--5-5--5--5-5-|
A----------------------------------------------------------------|
e----------------------------------------------------------------|

 2da guitarra
E-----------------------------------------------------------|
B--------------(6)-----------------------(11)-(6)-(11)\-----|
G--------------------------------------------------------5\-|
D-----------------------------------------------------------|
A-----------------------------------------------------------|
e-----------------------------------------------------------|

1ra guitarra
E------------------|---------|-10-9-------|
B------------------|---------|------9-7---|
G-5-7-5-7--5-7-5-7-|-7-9-7-9-|----------7-|
D------------------|---------|------------|
A------------------|---------|------------|
e------------------|---------|------------|

 2da guitarra
E-----------------------------------------|
B------(6)-------------(11)-(6)-(11)\-----|
G-----------------------------------------|
D-----------------------------------------|
A-----------------------------------------|
e-----------------------------------------|

1ra guitarra
E------------------|---------|-9-10-9-----|
B------------------|---------|--------9-7-|
G-5-7-5-7--5-7-5-7-|-7-9-7-9-|------------|
D------------------|---------|------------|
A------------------|---------|------------|
e------------------|---------|------------|

 2da guitarra
E-----------------------------------------|
B------(6)-------------(11)-(6)-(11)\-----|
G--------------------------------------5\-|
D-----------------------------------------|
A-----------------------------------------|
e-----------------------------------------|
     


                 Bm                         D
                mi futuro____        estoy buscando____
E--------------------------------|--------------------------------|
B--------------------------------|--------------------------------|
G-4--4-4--4--4-4--4--4-4--4--4-4-|-7--7-7--7--7-7--7--7-7--7--7-7-|
D-4--4-4--4--4-4--4--4-4--4--4-4-|-7--7-7--7--7-7--7--7-7--7--7-7-|
A-2--2-2--2--2-2--2--2-2--2--2-2-|-5--5-5--5--5-5--5--5-5--5--5-5-|
e--------------------------------|--------------------------------|
 
                  Bm                          D
           en un torbellino___      de dardos____ 
E--------------------------------|--------------------------------|
B--------------------------------|--------------------------------|
G-4--4-4--4--4-4--4--4-4--4--4-4-|-7--7-7--7--7-7--7--7-7--7--7-7-|
D-4--4-4--4--4-4--4--4-4--4--4-4-|-7--7-7--7--7-7--7--7-7--7--7-7-|
A-2--2-2--2--2-2--2--2-2--2--2-2-|-5--5-5--5--5-5--5--5-5--5--5-5-|
e--------------------------------|--------------------------------|

                     Bm                        D
                    algun dia____      encontrare___ 
E--------------------------------|--------------------------------|
B--------------------------------|--------------------------------|
G-4--4-4--4--4-4--4--4-4--4--4-4-|-7--7-7--7--7-7--7--7-7--7--7-7-|
D-4--4-4--4--4-4--4--4-4--4--4-4-|-7--7-7--7--7-7--7--7-7--7--7-7-|
A-2--2-2--2--2-2--2--2-2--2--2-2-|-5--5-5--5--5-5--5--5-5--5--5-5-|
e--------------------------------|--------------------------------|

                    Bm                         D
               buscando entre____             las sombras____
E--------------------------------|--------------------------------|
B--------------------------------|--------------------------------|
G-4--4-4--4--4-4--4--4-4--4--4-4-|-7--7-7--7--7-7--7--7-7--7--7-7-|
D-4--4-4--4--4-4--4--4-4--4--4-4-|-7--7-7--7--7-7--7--7-7--7--7-7-|
A-2--2-2--2--2-2--2--2-2--2--2-2-|-5--5-5--5--5-5--5--5-5--5--5-5-|
e--------------------------------|--------------------------------|
  


     Bm                   D       
  Olvidado____           olvidado____ 

 1ra guitarra
E----------------------------------------------------------|             
B----------------------------------------------------------|             
G-4--4-4--5-5--6-6--7-7--6-6--5-5--4-4--5-5--6-6-----------|             
D-4--4-4--5-5--6-6--7-7--6-6--5-5--4-4--5-5--6-6---5/7---8-|              
A-2--2-2--3-3--4-4--5-5--4-4--3-3--2-2--3-3--4-4-----------|             
e----------------------------------------------------------|              

 2da guitarra
E-----------------------------------------------------------|
B--------------(11)------------------------(6)--------------|
G-----------------------------------------------------------|
D-----------------------------------------------------------|
A-----------------------------------------------------------|
e-----------------------------------------------------------|


     Bm                       D
   Olvidado_____         olvidado_______

1ra guitarra
E----------------------------------------------------------|             
B----------------------------------------------------------|             
G-4--4-4--5-5--6-6--7-7--6-6--5-5--4-4--5-5--6-6-----------|             
D-4--4-4--5-5--6-6--7-7--6-6--5-5--4-4--5-5--6-6---5/7---8-|              
A-2--2-2--3-3--4-4--5-5--4-4--3-3--2-2--3-3--4-4-----------|             
e----------------------------------------------------------|              

 2da guitarra
E-----------------------------------------------------------|
B--------------(6)-----------------------(11)-(6)-(11)\-----|
G-----------------------------------------------------------|
D-----------------------------------------------------------|
A-----------------------------------------------------------|
e-----------------------------------------------------------|

       F#m                       G     
        Olvidado_____         olvidado_______
1ra guitarra
E----------------------------------------------------------------|
B----------------------------------------------------------------|
G----------------------------------------------------------------|
D-2--2-2--2--2-2--2--2-2--2--2-2--5--5-5--5--5-5--5--5-5--5--5-5-|
A----------------------------------------------------------------|
e----------------------------------------------------------------|

 2da guitarra
E-----------------------------------------------------------|
B--------------(6)-----------------------(11)-(6)-(11)\-----|
G-----------------------------------------------------------|
D-----------------------------------------------------------|
A-----------------------------------------------------------|
e-----------------------------------------------------------|

        F#m                        G
        ohhhhh____           ohhhhh_____
1ra guitarra
E----------------------------------------------------------------|
B----------------------------------------------------------------|
G----------------------------------------------------------------|
D-2--2-2--2--2-2--2--2-2--2--2-2--5--5-5--5--5-5--5--5-5--5--5-5-|
A----------------------------------------------------------------|
e----------------------------------------------------------------|

 2da guitarra
E-----------------------------------------------------------|
B--------------(6)-----------------------(11)-(6)-(11)\-----|
G--------------------------------------------------------5\-|
D-----------------------------------------------------------|
A-----------------------------------------------------------|
e-----------------------------------------------------------|

1ra guitarra
E------------------|---------|-10-9-------|
B------------------|---------|------9-7---|
G-5-7-5-7--5-7-5-7-|-7-9-7-9-|----------7-|
D------------------|---------|------------|
A------------------|---------|------------|
e------------------|---------|------------|

 2da guitarra
E-----------------------------------------|
B------(6)-------------(11)-(6)-(11)\-----|
G-----------------------------------------|
D-----------------------------------------|
A-----------------------------------------|
e-----------------------------------------|

1ra guitarra
E------------------|---------|-9-10-9-----|
B------------------|---------|--------9-7-|
G-5-7-5-7--5-7-5-7-|-7-9-7-9-|------------|
D------------------|---------|------------|
A------------------|---------|------------|
e------------------|---------|------------|

 2da guitarra
E-----------------------------------------|
B------(6)-------------(11)-(6)-(11)\-----|
G--------------------------------------5\-|
D-----------------------------------------|
A-----------------------------------------|
e-----------------------------------------|
    


     Bm                       D
   Olvidado_____         olvidado_______

1ra guitarra
E-----------------------------------------------------------|
B-----------------------------------------------------------|
G-4--4-4/-----------------7\-----6--------11----------------|
D-4--4-4/---------------------------------------------------|
A-2--2-2/---------------------------------------------------|
e-----------------------------------------------------------|

 2da guitarra
E-----------------------------------------------------------|
B--------------(6)-----------------------(11)-(6)-(11)\-----|
G-----------------------------------------------------------|
D-----------------------------------------------------------|
A-----------------------------------------------------------|
e-----------------------------------------------------------|

       F#m                       G     
        Olvidado_____         olvidado_______
1ra guitarra
E----------------------------------------------------------------|
B----------------------------------------------------------------|
G----------------------------------------------------------------|
D-2--2-2--2--2-2--2--2-2--2--2-2--5--5-5--5--5-5--5--5-5--5--5-5-|
A----------------------------------------------------------------|
e----------------------------------------------------------------|

 2da guitarra
E-----------------------------------------------------------|
B--------------(6)-----------------------(11)-(6)-(11)\-----|
G-----------------------------------------------------------|
D-----------------------------------------------------------|
A-----------------------------------------------------------|
e-----------------------------------------------------------|

        F#m                        G
        ohhhhh____           ohhhhh_____
1ra guitarra
E----------------------------------------------------------------|
B----------------------------------------------------------------|
G----------------------------------------------------------------|
D-2--2-2--2--2-2--2--2-2--2--2-2--5--5-5--5--5-5--5--5-5--5--5-5-|
A----------------------------------------------------------------|
e----------------------------------------------------------------|

 2da guitarra
E-----------------------------------------------------------|
B--------------(6)-----------------------(11)-(6)-(11)\-----|
G--------------------------------------------------------5\-|
D-----------------------------------------------------------|
A-----------------------------------------------------------|
e-----------------------------------------------------------|


esta cancion es muy facil creo que no tiene nada complicado
espero que este bien que lo más seguro es que si
dudas comentarios correcciones


            
            
Suggest correction
Creating personal tab
Creating personal tab
You can edit any tab online and save it as your Personal.

You can edit, replace or remove any tab part or add personal notes – all changes will be seen only by you.

Personal tabs can be accessed anytime from any device, even offline.
Learn more »
Give kudos to tab author, rate the tab!
1 2 3 4 5
comments
print report bad tab
guest
Wanna post a correction for this tab? Suggest correction