Oops, an error
Loading. Please wait.

Opio tab

version 3
version 3

Whole song

Interactive

178 views 1 this week
no commentswrite comment
1 2 3 4 5
3 more votes to show rating
add to favorites
×
Save as Personal and add changes to this tab that will be seen only by you. Learn more ›
×
You can save this tab as Personal to edit and correct it or add notes. All changes will be seen only by you. Learn more »
launch autoscroll
font size
0
reset
how to read this tab
guitar tuner
backing track
0:00
0:00
edit
Autoscroll
slow
fast
+/-
esc
set tempo
stop
Esta es mi transcripcion de la que considero una de las mejores 
canciones de los Heroes,que la disfruten
intro

e------------------------------------|
b------------------------------------|
g---------4-6/8~~~8-6h8p6-4-6-8-8b8r-|
d------6-----------------------------|
a-4/6--------------------------------|
e------------------------------------|

e------------------------------6-----|
b-----------------7------------------|
g---------4-6/8~~~--8h9-8-6-8-----8--|
d------6-----------------------------|
a-4/6--------------------------------|
e------------------------------------|

e-----------------------------------------------------6---6--|
b-----------------------------------------------------7---7--|
g---------4-6/8~~~6~~~6p4-6/11~-9-8h9p8-6-8h9p8-6-8---8---8--|
d------6----------------------------------------------8---8--|
a-4/6-----------------------------------------------6-6-6-6--|
e------------------------------------------------------------|

e------------------------------------|
b------------------------------------|
g---------4-6/8~~~8-6h8p6-4-6-8-8b8r-|
d------6-----------------------------|
a-4/6--------------------------------|
e------------------------------------|

e------------------------------6-----|
b-----------------7------------------|
g---------4-6/8~~~--8h9-8-6-8-----8--|
d------6-----------------------------|
a-4/6--------------------------------|
e------------------------------------|

e---------------------------------------------6---------------------|
b---------------------------------------------7---------7-----------|
g---------4-6/8~~~6~~~6-4-6~~~9-8-6-----------8-8---8-----8----8----|
d------6----------------------------9-8-6-----8-8---8-------8----8--|
a-4/6-------------------------------------9-7-6---6---6-------6---6-|
e-------------------------------------------------------------------|


versos
e---------------------------|----------------------------|
b---------------------------|----------------------------|
g---------------------------|-8-8-8--8-8--6-6-6/11-8-8-x-|
d-6-6-6--6-6--4/6-6/9-6-6-x-|-8-8-8--8-8--6-8-8/11-8-8-x-|
a-6-6-6--6-6--4/6-6/9-6-6-x-|-6-6-6--6-6--4-6-6/9--6-6-x-|
e-4-4-4--4-4--2/4-4/7-4-4-x-|----------------------------|

e---------------------------------------|----------------------------|
b---------------------------------------|----------------------------|
g---------------------------------------|-8-8-8--8-8--6-8-8/11-8-8-x-|
d-11---11---11h13-11-11---11---11h13-11-|-8-8-8--8-8--6-8-8/11-8-8-x-|
a-9--9----9----------9--9----9----------|-6-6-6--6-6--4-6-6/9--6-6-x-|
e---------------------------------------|----------------------------|

coros (otra guitarra hace los acordes con un efecto de chorus)
e----------------|----------------|-----6-7p6---|------------|
b----------------|----------------|---9-------5-|------------|
g-------4-6/8~~~-|-------4-6/8~~~-|-8-----------|-6/8/-6-6-6-|
d-----6----------|-----6----------|-------------|-6/8/-6-6-6-|
a-4/6------------|-4/6------------|-------------|-4/6/-4-4-4-|
e----------------|----------------|-------------|------------|

e----------------|----------------|-----6-7p6---|-------------------|
b----------------|----------------|---9-------5-|-------------------|
g-------4-6/8~~~-|-------4-6/8~~~-|-8-----------|-8-8-8-8-11-11-11--|
d-----6----------|-----6----------|-------------|-8-8-8-8-11-11-11--|
a-4/6------------|-4/6------------|-------------|-6-6-6-6-9--9--9---|
e----------------|----------------|-------------|-------------------|

-se repite el intro-

luego se toca esto algo como un puente. (toquenlo en 3/4)
                                       
e---------|---------|-4-------|---2---|
b-4-4---4-|-4-4---4-|-6-6-5h6-|-2---2-|
g-4---4---|-4---4---|-4-------|-2-----|  4 veces
d-6-------|-4-------|---------|-4-----|
a---------|---------|---------|-------|
e---------|---------|---------|-------|

mientras otra guitarra toca esto,o lo puede hacer el bajo.
si lo tocas con el bajo hazlo una octava arriba para que suene bien.

e-------------|-------------|-------------|-------------|4 veces
b-------------|-------------|-------------|-------------|
g-------------|-------------|-------------|-------------|ahoga un poco
d-----1-----1-|---1-4---1-4-|---6-9---6-9-|-------------|las cuerdas
a---2-----2---|-2-----2-----|-7-----7-----|---1-4---1-4-|
e-4-----4-----|-------------|-------------|-2-----2-----|

intermedio (con palm mute)

e-----------------|-----------------|------------------|
b-----------------|-----------------|------------------|
g-----------------|-----------------|-9-9-9-9-9-9-9-9--|
d-6-6-6-6-6-6-6-6-|-9-9-9-9-9-9-9-9-|-9-9-9-9-9-9-9-9--|
a-6-6-6-6-6-6-6-6-|-9-9-9-9-9-9-9-9-|-7-7-7-7-7-7-7-7--|
e-4-4-4-4-4-4-4-4-|-7-7-7-7-7-7-7-7-|------------------|

e--------------------------|
b--------------------------|
g-11-11-11-11-11-11-11-11--|4 veces
d-11-11-11-11-11-11-11-11--|
a-9--9--9--9--9--9--9--9---|
e--------------------------|

se repite el coro y se termina.
y ahora la letra con lo acordes


      G#m
Es el opio la flor de la pereza
           D#m
hasta que llego a ser solo existencia
   F
el humo de leche muje lento
      D#7
extendiendo el sabor del universo 

El que nada hace nada teme
de terrenal sabras lo celeste
un oscuro derecho a al delicia 
sera un sueño o sera mentira

B
Las cosas mas triviales
    G#m
se vuelven fundamentales
 E                         Cm
eliminando los moldes del azar
B                              G#m
como se agita el viento sin alimento
   E                               D#7  E
escucha mi canto abierto de par en par

en el INTRO G#m,D#m,Cm,D#7


G#m           B   E             F
Esquirlas de aire arcano indecifrable
en el jardin de mis delicias pertenezco a la brisa
inhalo la niebla que flota en el Ganges
el aceite de incienso nos servira de consuelo.

pues eso es todo espero que les sirva
si tienen alguna sugerencia que hacerme escribanme 
mi nombre es Salvador Hernandez Ramirez soy de Guadalajara,Mexico.
mi E-Mail es: sh1977@
    mandenme sus sugerencias o algun saludo,hasta luego.

            
            
Suggest correction
Creating personal tab
Creating personal tab
You can edit any tab online and save it as your Personal.

You can edit, replace or remove any tab part or add personal notes – all changes will be seen only by you.

Personal tabs can be accessed anytime from any device, even offline.
Learn more »
Give kudos to tab author, rate the tab!
1 2 3 4 5
comments
print report bad tab
guest
Wanna post a correction for this tab? Suggest correction