Oops, an error
Loading. Please wait.

Opio bass

version 1
version 1

Whole song

Interactive

488 views 6 this week
no commentswrite comment
1 2 3 4 5
3 more votes to show rating
add to favorites
×
Save as Personal and add changes to this tab that will be seen only by you. Learn more ›
×
You can save this tab as Personal to edit and correct it or add notes. All changes will be seen only by you. Learn more »
launch autoscroll
font size
0
reset
guitar tuner
backing track
0:00
0:00
edit
Autoscroll
slow
fast
+/-
esc
set tempo
stop
INTRO:
4-4444--2---4444--------------------------------
3---------2-------6666--4---666--4444--2---4444- 
2-------------------------4--------------2------
1----------------------------------------------- 

4------------------------------- 
3-666-4-666-4-------------------  x 2
2------------------------------- 
1------------------------------- 


Verso:
4 -4444-2--4444----------------------------- 
3 --------2-----6666-4-6666---9999-7--9999-- 
2 --------------------4--------------7------
1 ------------------------------------------ 

4----------------------------
3-666-4-666------------------  x 2
2---------------------------- 
1---------------------------- 


Coro: 
4-----------444-444---------------------- 
3-222--222-----6---6--777-777--444-44---- 
2-----4---4--------------9--------6---6-- 
1---------------------------------------6

4----------444-444-----------------------
3-222-222-----2---2-777-777--6---7-------
2----4---4-------------9---9---8---9-----
1--------------------------------8---9---  

PUENTE FINAL:

4---444444-----77777777------------------------------
3----------------------7777777-----9999999----------- 
2---------------------------------------------------- 
1----------------------------------------------------  


Banda esta es la transcripción en bajo a corde con  
la de guitarra de José Salvador Hernandez Ramirez. 
Nos vemos, algún comentario escríbanme a mi mail.
 

NOTA: Solo se trata de escuchar la cancion.

            
            
Suggest correction
Creating personal tab
Creating personal tab
You can edit any tab online and save it as your Personal.

You can edit, replace or remove any tab part or add personal notes – all changes will be seen only by you.

Personal tabs can be accessed anytime from any device, even offline.
Learn more »
Give kudos to tab author, rate the tab!
1 2 3 4 5
comments
print report bad tab
guest
Wanna post a correction for this tab? Suggest correction