Oops, an error
Loading. Please wait.

Oracion tab

version 2
version 2

Whole song

301 views 6 this week
no commentswrite comment
1 2 3 4 5
3 more votes to show rating
add to favorites
×
Save as Personal and add changes to this tab that will be seen only by you. Learn more ›
×
You can save this tab as Personal to edit and correct it or add notes. All changes will be seen only by you. Learn more »
launch autoscroll
font size
0
reset
how to read this tab
guitar tuner
edit
Autoscroll
slow
fast
+/-
esc
set tempo
stop
ORACION- HEROES DEL SILENCIO
AFINACION STANDARD
TEMPO=108 bpm
INTRO:
E|--------------|-------------------------|
B|--------------|--------------10----10---|
G|---------4----|-/7--9-----------7-----7-|
D|-----------2--|--------7--9-------------|
A|-2-4----------|-------------------------|
E|-----2-3------|-------------------------|

VERSOS:
ESTO SE TOCA SOLO 1 VEZ
E|-------------------|-------------|--------------------|-----------------|
B|-------------------|-------------|--------------------|---------10---10-|
G|----7-9-11-6---6-7-|(7)--7---7---|-----7-9-11-6---6-7-|(7)--7-----------|
D|-7H9---------7-----|---9---9---9-|-7H9----------7-----|---9---9----9----|
A|-------------------|-------------|--------------------|-----------------|
E|-------------------|-------------|--------------------|-----------------|

DESPUÉS SE TOCA ESTA PARTE QUE VA LIGADA A LOS COROS
E|--------------------|-------------|--------------------|----------------|
B|--------------------|-------------|--------------------|----------------|
G|-----7-9-11-6---6-7-|(7)--7---7---|-----7-9-11-6---6-7-|(7)--7-(7)------|
D|--7H9---------7-----|---9---9---9-|-7H9----------7-----|---9------0-2-4-|
A|--------------------|-------------|--------------------|----------------|
E|--------------------|-------------|--------------------|----------------|

ESTOS SON LOS COROS
E|-------3---------|---------3-2----|-------3---------|---2-----------|
B|-----3-------2-3-|(3)----3--------|-----3-------2---|-------3-------|
G|---4-------2-----|-----4-------4--|---4-------2---2-|-4---4---4-2-4-|
D|-5-------4-------|---4-----------4|-5-------4-------|---------------|
A|-----------------|----------------|-----------------|---------------|
E|-----------------|----------------|-----------------|---------------|


E|-------3---------|---------3-2----|-------3---------|---2---2-------|
B|-----3-------2-3-|(3)----3--------|-----3-------2---|-----3---3-----|
G|---4-------2-----|-----4-------4--|---4-------2---2-|-4---------4---|
D|-5-------4-------|---4-----------4|-5-------4-------|---------------|
A|-----------------|----------------|-----------------|---------------|
E|-----------------|----------------|-----------------|---------------|

 PUENTE                                                      |--3--|
E|-----------2-3-2-|--------2-2---------2-3-2-|-----------2-3-2-3-2-|
B|---------3-------|5-3(3)5-----3-(3)-5-------|---------3-----------|
G|-------4---------|--------------------------| ------4-------------|
D|-2-4-5-----------|--------------------------|-2-4-5---------------|
A|-----------------|--------------------------|---------------------|
E|-----------------|--------------------------|---------------------|

E|-----------2---2--|
A|-5-3-(3)-5---5----|
D|------------------|
G|------------------|
B|------------------|
E|------------------|

SOLO (CON DISTORCIÓN)
                                      X2
E|------10----10----9--|-------|------|---10--14-12-10----------|
B|--10----10----10-----|-------|------|-10-------------14-12----|
G|---------------------|--4----| -4---|-------------------------|
D|---------------------|-------|--4---|----------------------11-|
A|---------------------|-------|--2---|-------------------------|
E|---------------------|-------|------|-------------------------|

E|-14-12-10---------|
B|----------14-12---|
G|------------------|
D|----------------9-|
A|------------------|
E|------------------|


                                   |---3----| |---3---|
E|------|-----10--14-12-10--------|-14-12-10---------------|-----|
B|------|-10--------------14-12---|-----------14-12-10--12-|-----|
G|--4---|-------------------------|---------------------11-|--4--|
D|--4---|-----------------------11|------------------------|--4--|
A|--2---|-------------------------|------------------------|--2--|
E|------|-------------------------|------------------------|-----|


AQUÍ ESTAN LA LETRA Y LOS ACORDES

Bm         F#m
PIERDO EL TIEMPO
    G                Bm
PENSANDO EN LO ESENCIAL
            F#m     G
QUE A VECES DEJO PASAR


Bm         F#m    G           Bm
CUANTOS INSTANTES HE IGNORADO YA
        F#m     G
CAPACES DE HABERME CAMBIADO

CORO
G         F#m   Bm
  Y NO HAY ORACION
     G         F#m     Bm
  CAPAZ DE DECIDIR POR MI
       G
  OH SENOR
         F#m       G
  NO QUEDA OTRA OPCION
        G
  Y JAMAS
             F#m    G
ME VUELVO A ARREPENTIR

D Dsus4 F#m Bm Bm
D Dsus4 F#m Bm G

Bm          F#m        G
SIEMPRE HAY UNA DISYUNTIVA
        Bm
ANTE LA CUAL
            F#m      G
SIEMPRE HAY QUE ELEGIR
Bm       F#m     G
NO QUEDA OTRA ALTERNATIVA
   Bm    F#m          G
Y RAPIDAMENTE HAY QUE DECIDIR

CORO
G         F#m   Bm
  Y NO HAY ORACION
     G         F#m     Bm
  CAPAZ DE DECIDIR POR MI
       G
  OH SENOR
         F#m       G
  NO QUEDA OTRA OPCION
        G
  Y JAMAS
             F#m    G
ME VUELVO A ARREPENTIR

(PUENTE)

CORO
G         F#m   Bm
  Y NO HAY ORACION
     G         F#m     Bm
  CAPAZ DE DECIDIR POR MI
       G
  OH SENOR
         F#m       G
  NO QUEDA OTRA OPCION
        G
  Y JAMAS
             F#m    G
ME VUELVO A ARREPENTIR

D Dsus4 F#m Bm Bm
D Dsus4 F#m Bm G

(SOLO)


AQUI SE MARCAN LOS COMPASES CON QUINTAS Y DISTORCION

CORO
G         F#m   Bm
  Y NO HAY ORACION
     G         F#m     Bm
  CAPAZ DE DECIDIR POR MI
       G
  OH SENOR
         F#m       G
  NO QUEDA OTRA OPCION
        G
  Y JAMAS
             F#m    G
ME VUELVO A ARREPENTIR

TERMINA EN Bm
GRACIAS A ELIAS AMABILIS POR SU COLABORACION

            
            
Suggest correction
Creating personal tab
Creating personal tab
You can edit any tab online and save it as your Personal.

You can edit, replace or remove any tab part or add personal notes – all changes will be seen only by you.

Personal tabs can be accessed anytime from any device, even offline.
Learn more »
Give kudos to tab author, rate the tab!
1 2 3 4 5
comments
print report bad tab
guest
Wanna post a correction for this tab? Suggest correction