Oops, an error
Loading. Please wait.

Oracion tab

version 3
version 3

Whole song

215 views 1 this week
no commentswrite comment
1 2 3 4 5
3 more votes to show rating
add to favorites
×
Save as Personal and add changes to this tab that will be seen only by you. Learn more ›
×
You can save this tab as Personal to edit and correct it or add notes. All changes will be seen only by you. Learn more »
launch autoscroll
font size
0
reset
how to read this tab
guitar tuner
edit
Autoscroll
slow
fast
+/-
esc
set tempo
stop
Hola colegas musicos, antes que nada perdon por los acentos,
mi teclado es americano. IMPORTANTE: Esta es mi primera aportacion
a  y debo de darle creditos a Heroes del Silencio
por crear esta cancion y al esfuerzo de los que han subido tablaturas
para esta cancion, pero lamento decirles que todas las tablaturas
estan incorrectas, incluso la que tiene mejor puntuacion,
debo decir tambien  que me base en la que tiene mejor puntuacion
pero esta mal en algunas pisadas, ya que en los versos y coros
no son siempre las mismas. Aqui esta corregida y bien :)
espero que les guste.

Notas: h = hammer on

Oracion - Heroes del Silencio
Afinacion E A D G B E
Si usan pedalera usen Chours y Delay y modulenlo a su gusto :)

Intro:
E|--------------|---------------------------|
B|--------------|--------------10------10---|
G|---------2----|-----------------7-------7-|
D|-----------0--|-9-11--------------(9)-----|
A|-2-4----------|------9-10-----------------|
E|-----2-3------|---------------------------|

Verso 1:
E|-------------------|-------------------|-------------------|
B|--------7--------8-|-------10-----10---|--------7--------8-|
G|----7-9----6---6---|(7)--7----7------7-|----7-9----6---6---|
D|-7h9---------7-----|---9--------9------|-7h9---------7-----|
A|-------------------|-------------------|-------------------|
E|-------------------|-------------------|-------------------|

E|-------------------|
B|-------------------|
G|(7)--7---7---7-----|
D|---9---9---9---9---|
A|-------------------|
E|-------------------|

E|-------------------|-------------------|-------------------|
B|--------7--------8-|-------10-----10---|--------7--------8-|
G|----7-9----6---6---|(7)--7----7------7-|----7-9----6---6---|
D|-7h9---------7-----|---9--------9------|-7h9---------7-----|
A|-------------------|-------------------|-------------------|
E|-------------------|-------------------|-------------------|

E|-------------------|
B|-------10----------|
G|(7)--7----7--------|
D|---9--------9-2-4--|
A|-------------------|
E|-------------------|

Coro 1:
E|-----------------|---------3-2----|-----------------|
B|-----3-------2-3-|-------3--------|-----3-------2---|
G|---4-------2-----|-4---4----------|---4-------2---2-|
D|-5-----5-4-------|---4---------2-4|-5-------4-------|
A|-----------------|----------------|-----------------|
E|-----------------|----------------|-----------------|

E|-----2-----------|
B|---3-----3-------|
G|-4-----4---4-----|
D|-------------2-4-|
A|-----------------|
E|-----------------|

E|-----------------|---------3-2----|-----------------|
B|-----3-------2-3-|-------3--------|-----3-------2---|
G|---4-------2-----|-4---4----------|---4-------2---2-|
D|-5-----5-4-------|---4---------2-4|-5-------4-------|
A|-----------------|----------------|-----------------|
E|-----------------|----------------|-----------------|

E|---7-------------|
B|-----7---8-7---7-|
G|-4-----7-----7---|
D|-----------------|
A|-----------------|
E|-----------------|

En esta parte un rasgeo lento la priemra vez que se toca cada nota se
oie mas como el estilo que le pone Valdivia, escuchen bien la cancion
y sabran a lo que me refiero:

E|-2-2-2-3h2-x-x-0-2-|-2-2-2-2-x-x-2-2-|-2-2-2-2-2-2-2-|
B|-3-3-3-3---x-x-3-3-|-2-2-2-2-x-x-2-2-|-3-3-3-3-2-2-3-|
G|-2-2-2-2---x-x-2-2-|-2-2-2-2-x-x-2-2-|-4-4-4-4-4-4-4-|
D|-0-0-0-0---x-x-0-0-|-4-4-4-4-x-x-4-4-|-4-4-4-4-4-4-4-|
A|-0-0---------------|-4-4-------------|-2-2---------2-|
E|-0-----------------|-2---------------|-2-----------2-|

E|-2-2-2-2-2-2--|
B|-3-3-3-3-3-3--|
G|-4-4-4-4-4-4--|
D|-4-4-4-4-4-4--|
A|-2-2----------|
E|-3------------|

E|-2-2-2-3h2-x-x-0-2-|-2-2-2-2-x-x-2-2-|-2-2-2-2-x-x-2-2-|
B|-3-3-3-3---x-x-3-3-|-2-2-2-2-x-x-2-2-|-3-3-3-3-x-x-2-3-|
G|-2-2-2-2---x-x-2-2-|-2-2-2-2-x-x-2-2-|-4-4-4-4-x-x-4-4-|
D|-0-0-0-0---x-x-0-0-|-4-4-4-4-x-x-4-4-|-4-4-4-4-x-x-4-4-|
A|-0-0---------------|-4-4-------------|-2-2-----------2-|
E|-0-----------------|-2---------------|-2-------------2-|

E|-3-3-3-3-3-3-3-3-3-|
B|-3-3-3-3-3-3-3-3-3-|
G|-4-4-4-4-4-4-4-4-4-|
D|-5-5-5-5-5-5-5-5-5-|
A|-5-----5---------5-|
E|-3-----3---------3-|


Verso 2:
E|-------------------|-----------------|-------------------|
B|--------7--------8-|-----------------|--------7--------8-|
G|----7-9----6---6---|(7)--7---7---7---|----7-9----6---6---|
D|-7h9---------7-----|---9---9---9---9-|-7h9---------7-----|
A|-------------------|-----------------|-------------------|
E|-------------------|-----------------|-------------------|

E|------------------|
B|---------10-------|
G|(7)--7------7---7-|
D|---9---9------9---|
A|------------------|
E|------------------|

E|-------------------|-------------------|-------------------|
B|--------7--------8-|-------10-----10---|--------7--------8-|
G|----7-9----6---6---|(7)--7----7------7-|----7-9----6---6---|
D|-7h9---------7-----|---9--------9------|-7h9---------7-----|
A|-------------------|-------------------|-------------------|
E|-------------------|-------------------|-------------------|

E|-------------------|
B|-------10----------|
G|(7)--7----7--------|
D|---9--------9-2-4--|
A|-------------------|
E|-------------------|

Coro 2:
E|-----------------|---------3-2----|-----------------|
B|-----3-------2-3-|-------3--------|-----3-------2---|
G|---4-------2-----|-4---4----------|---4-------2---2-|
D|-5-----5-4-------|---4---------2-4|-5-------4-------|
A|-----------------|----------------|-----------------|
E|-----------------|----------------|-----------------|

E|---7-------------|
B|-----7---8-7-----|
G|-4-----7---------|
D|-------------2-4-|
A|-----------------|
E|-----------------|


E|-----------------|---------3-2----|-----------------|---2-----2---|
B|-----3-------2-3-|-------3--------|-----3-------2-3-|-----3-----3-|
G|---4-------2-----|-4---4----------|---4-------2-----|-4-----4-----|
D|-5-----5-4-------|---4---------2-4|-5-------4-------|-------------|
A|-----------------|----------------|-----------------|-------------|
E|-----------------|----------------|-----------------|-------------|


 Puente:
E|----------------------|-----------------|
B|--------------8-7-----|-----7-----8h7---|
G|----------7-9-----9-7-|-7h9---9-7-----7-|
D|--------7-------------|-----------------|
A|-7-9-10---------------|-----------------|
E|----------------------|-----------------|

E|--------------------------|------------------|
B|--------------8-7h8h7-----|-----7-----10h7---|
G|----------7-9---------9-7-|-7h9---9-7------7-|
D|--------7-----------------|------------------|
A|-7-9-10-------------------|------------------|
E|--------------------------|------------------|

Coro 3:
E|-----------------|---------3-2----|-----------------|
B|-----3-------2-3-|-------3--------|-----3-------2---|
G|---4-------2-----|-4---4----------|---4-------2---2-|
D|-5-----5-4-------|---4---------2-4|-5-------4-------|
A|-----------------|----------------|-----------------|
E|-----------------|----------------|-----------------|

E|---7-----7-------|
B|-----7-----7-----|
G|-4-----7---------|
D|-------------2-4-|
A|-----------------|
E|-----------------|


E|-----------------|---7------------|-----------------|
B|-----3-------2---|-----7---7------|-----3-------2---|
G|---4-------2---2-|-4-----7---7----|---4-------2---2-|
D|-5-----5-4-------|-------------2-4|-5-------4-------|
A|-----------------|----------------|-----------------|
E|-----------------|----------------|-----------------|

E|---7-----7-------|
B|-----7-----7-----|
G|-4-----7-----7---|
D|---------------9-|
A|-----------------|
E|-----------------|

Esta parte se hace igual, es antes del solo.

E|-2-2-2-3h2-x-x-0-2-|-2-2-2-2-x-x-2-2-|-2-2-2-2-2-2-2-|
B|-3-3-3-3---x-x-3-3-|-2-2-2-2-x-x-2-2-|-3-3-3-3-2-2-3-|
G|-2-2-2-2---x-x-2-2-|-2-2-2-2-x-x-2-2-|-4-4-4-4-4-4-4-|
D|-0-0-0-0---x-x-0-0-|-4-4-4-4-x-x-4-4-|-4-4-4-4-4-4-4-|
A|-0-0---------------|-4-4-------------|-2-2---------2-|
E|-0-----------------|-2---------------|-2-----------2-|

E|-2-2-2-2-2-2--|
B|-3-3-3-3-3-3--|
G|-4-4-4-4-4-4--|
D|-4-4-4-4-4-4--|
A|-2-2----------|
E|-3------------|

E|-2-2-2-3h2-x-x-0-2-|-2-2-2-2-x-x-2-2-|-2-2-2-2-x-x-2-2-|
B|-3-3-3-3---x-x-3-3-|-2-2-2-2-x-x-2-2-|-3-3-3-3-x-x-2-3-|
G|-2-2-2-2---x-x-2-2-|-2-2-2-2-x-x-2-2-|-4-4-4-4-x-x-4-4-|
D|-0-0-0-0---x-x-0-0-|-4-4-4-4-x-x-4-4-|-4-4-4-4-x-x-4-4-|
A|-0-0---------------|-4-4-------------|-2-2-----------2-|
E|-0-----------------|-2---------------|-2-------------2-|

E|-3-3-3-3-3-3-3-3-3-|
B|-3-3-3-3-3-3-3-3-3-|
G|-4-4-4-4-4-4-4-4-4-|
D|-5-5-5-5-5-5-5-5-5-|
A|-5-----5---------5-|
E|-3-----3---------3-|


Solo: dejenle igual el Chours y Delay pero apliquen un poco de
      distorcion, no mucha y metanle un Slide (/) al principio
      para darle estilo :) y deja sonar cada nota.

E|-------------10-----10-9-----9/-|-------------|
B|-------/(10)-----10----10-10----|--7--7/------|
G|-4---4--------------------------|--4--4/---4--|
D|-4---4--------------------------|----------4--|
A|-2---2--------------------------|----------2--|
E|--------------------------------|-------------|

E|-------10-10----9-10----12----|
B|-/(10)-------10------10----10-|
G|------------------------------|
D|------------------------------|
A|------------------------------|
E|------------------------------|

E|--------|-------10-14----------------|-12----------------------|
B|-7-7/---|-/(10)-------17-15-14-------|----15-14-12-------------|
G|-4-4/-4-|----------------------14----|-------------12--------4-|
D|------4-|-------------------------11-|----------------9-(9)/-4-|
A|------2-|----------------------------|-----------------------2-|
E|--------|----------------------------|-------------------------|

E|-------10-14----------------|-------------------------------------|
B|-/(10)-------17-15-14-------|-17h15h14-12-------------------------|
G|----------------------14----|-------------14-------(9)-(9)/-----4-|
D|-------------------------11-|----------------16-14-(9)-(9)/---4-4-|
A|----------------------------|----------------------(7)-(7)/-----2-|
E|----------------------------|-------------------------------------|

Fin del solo.

Los acordes que se tocan despues del solo son estos:
   G  F# B
E|---------|
B|---------|
G|-12-11-4-|
D|-12-11-4-|
A|-10-9--2-|
E|---------|

Despues cuando llega la ultima parte de la cancion en los gritos
de NO NO NO!!! se hacen los mismos acordes solo que cada uno
se repite 4 veces, escuchen la cancion con cuidado y
sabran a que me refiero :) y asi es el final:

E|----------------------------------------------|
B|----------------------------------------------|
G|-12-12-12-12-11-11-11-11-9----(9)/-4----------|
D|-12-12-12-12-11-11-11-11-9----(9)/-4----------|
A|-10-10-10-10-9--9--9--9--7----(7)/-2----------|
E|----------------------------------------------|

Fin de la cancion :) espero que les haya gustado y califiquen :)
cualquier duda sugerencia y/o comentario escriban a mi direccion
de correo :)
Gracias m/

            
            
Suggest correction
Creating personal tab
Creating personal tab
You can edit any tab online and save it as your Personal.

You can edit, replace or remove any tab part or add personal notes – all changes will be seen only by you.

Personal tabs can be accessed anytime from any device, even offline.
Learn more »
Give kudos to tab author, rate the tab!
1 2 3 4 5
comments
print report bad tab
guest
Wanna post a correction for this tab? Suggest correction