Oops, an error
Loading. Please wait.

Oracion tab

version 4
version 4

Whole song

145 views 1 this week
no commentswrite comment
1 2 3 4 5
3 more votes to show rating
add to favorites
×
Save as Personal and add changes to this tab that will be seen only by you. Learn more ›
×
You can save this tab as Personal to edit and correct it or add notes. All changes will be seen only by you. Learn more »
launch autoscroll
font size
0
reset
how to read this tab
guitar tuner
edit
Autoscroll
slow
fast
+/-
esc
set tempo
stop
ORACION


INTRO:

E----------------|-----------5----5-----5-|
B----------------|-------------3-----3----|
G------------3---|-3-5--------------------|
D--------------1-|------0-1---------------|
A-2-4------------|------------------------|
e------0-1-------|------------------------|


 Bm         F#m       G              Bm           F#m          G        
    Pierdo el tiempo pensando en lo esencial que a veces dejo pasar
E-----------------5----------5---5---|---------------------------|
B---------------3---3----------3---3-|-------------3-------------|
G-2h3s5-7-8-7-5-------5-3-5----------|-2h3s5-7-8-7---5-3-2-3-5-3-|
D------------------------------------|---------------------------|
A------------------------------------|---------------------------|
e------------------------------------|---------------------------|
            
  Bm         F#m       G              Bm           F#m          G        
     cuantos instantes he ignorado ya capaces de haberme cambiado
E-----------------5----------5---5---|-------------------------|
B---------------3---3----------3---3-|-------------3-----------|
G-2h3s5-7-8-7---------5-3-5----------|-2h3s5-7-8-7---5-3-2-3---|
D------------------------------------|-------------------------|
A------------------------------------|-------------------------|
e------------------------------------|-------------------------|


  F#m    Bm        D                  F#m     G       Bm
          y no hay oración____    capaz de decidir por mi_____
E-------|--------|-------2-3-2-------|-------|-------|-------2---------|
B-------|--------|-----3-------3-----|-------|-------|-----2---2-------|
G-----4-|-----2--|---2-----------2---|-----4-|-----2-|---2-------2---2-|
D---5---|---4----|-0---------------0-|---5---|---4---|-4-----------4---|
A-5-----|-4------|-------------------|-5-----|-4-----|-----------------|
e-------|--------|-------------------|-------|-------|-----------------|

  F#m    Bm        D                  F#m     G       Bm
   oh señor, no queda otra opción y jamás me vuelvo a arrepentir__.    
E-------|--------|-------2-3-2-------|-------|-------|-------2-----2---2-|
B-------|--------|-----3-------3-----|-------|-------|-----2---2---------|
G-----4-|-----2--|---2-----------2---|-----4-|-----2-|---2-------2---2---|
D---5---|---4----|-0---------------0-|---5---|---4---|-4-----------------|
A-5-----|-4------|-------------------|-5-----|-4-----|-------------------|
e-------|--------|-------------------|-------|-------|-------------------|


 D              F#m            Bm           Bm 
E-2-2-2-2-2-2-|-2-2-2-2-2-2-|-2-2-2-2-2-2-|-2-2-2-2-2-2--|
B-3-3-3-3-3-3-|-2-2-2-2-2-2-|-3-3-3-3-3-3-|-3-3-3-3-3-3--|
G-2-2-2-2-2-2-|-2-2-2-2-2-2-|-4-4-4-4-4-4-|-4-4-4-4-4-4--|
D-0-0-0-0-0-0-|-4-4-4-4-4-4-|-4-4-4-4-4-4-|-4-4-4-4-4-4--|
A-0-0---------|-4-4---------|-2-2---------|-2-2----------|
e-0-----------|-2-----------|-2-----------|-3------------|

D              F#m            Bm           Bm
E-2-2-2-2-2-2-|-2-2-2-2-2-2-|-0-0-0-0-0-0-|-3-3-3-3-3-3--|
B-3-3-3-3-3-3-|-2-2-2-2-2-2-|-3-3-3-3-3-3-|-0-0-0-0-0-0--|
G-2-2-2-2-2-2-|-2-2-2-2-2-2-|-4-4-4-4-4-4-|-0-0-0-0-0-0--|
D-0-0-0-0-0-0-|-4-4-4-4-4-4-|-4-4-4-4-4-4-|-0-0-0-0-0-0--|
A-0-0---------|-4-4---------|-2-2---------|-2-2----------|
e-0-----------|-2-----------|-2-----------|-3------------|


  Bm         F#m       G              Bm           F#m          G        
      siempre hay una disyuntiva ante la cual siempre hay que elegir
E-----------------5----------5---5---|---------------5--------------|
B---------------3---3----------3---3-|-------------3----------------|
G-2h3s5-7-8-7-5-------5-3-5----------|-2h3s5-7-8-7------5-3-2-3-5-3-|
D------------------------------------|------------------------------|
A------------------------------------|------------------------------|
e------------------------------------|------------------------------|

  Bm         F#m       G              Bm           F#m          G        
       no queda otra alternativa y rápidamente hay que decidir
E-----------------5----------5---5---|---------------5----------|
B---------------3---3----------3---3-|-------------3------------|
G-2h3s5-7-8-7---------5-3-5----------|-2h3s5-7-8-7------5-3-2-3-|
D------------------------------------|--------------------------|
A------------------------------------|--------------------------|
e------------------------------------|--------------------------|


  F#m    Bm        D                  F#m     G       Bm
          y no hay oración____    capaz de decidir por mi_____
E-------|--------|-------2-3-2-------|-------|-------|-------2---------|
B-------|--------|-----3-------3-----|-------|-------|-----2---2-------|
G-----4-|-----2--|---2-----------2---|-----4-|-----2-|---2-------2---2-|
D---5---|---4----|-0---------------0-|---5---|---4---|-4-----------4---|
A-5-----|-4------|-------------------|-5-----|-4-----|-----------------|
e-------|--------|-------------------|-------|-------|-----------------|

  F#m    Bm        D                  F#m     G       Bm
   oh señor, no queda otra opción y jamás me vuelvo a arrepentir__.    
E-------|--------|-------2-3-2-------|-------|-------|-------2-----2---2-|
B-------|--------|-----3-------3-----|-------|-------|-----2---2---------|
G-----4-|-----2--|---2-----------2---|-----4-|-----2-|---2-------2---2---|
D---5---|---4----|-0---------------0-|---5---|---4---|-4-----------------|
A-5-----|-4------|-------------------|-5-----|-4-----|-------------------|
e-------|--------|-------------------|-------|-------|-------------------|


E--------------------------2---------|-------------------------2---------------|
B-------2-3-5----------------3h5p3---|-------2-3-5---------------3h5p3---------|
G-----2-------5-3-2-3h5p3----------5-|-----4-------5-3-2-3h5p3---------5p3h5---|
D---4--------------------------------|---4-----------------------------------5-|
A-4----------------------------------|-4---------------------------------------|
e------------------------------------|-----------------------------------------|


  F#m    Bm        D                  F#m     G       Bm
          y no hay oración____    capaz de decidir por mi_____
E-------|--------|-------2-3-2-------|-------|-------|-------2-----2---2-|
B-------|--------|-----3-------3-----|-------|-------|-----2---2---------|
G-----4-|-----2--|---2-----------2---|-----4-|-----2-|---2-------2---2---|
D---5---|---4----|-0---------------0-|---5---|---4---|-4-----------------|
A-5-----|-4------|-------------------|-5-----|-4-----|-------------------|
e-------|--------|-------------------|-------|-------|-------------------|

  F#m    Bm        D                  F#m     G       Bm
   oh señor, no queda otra opción y jamás me vuelvo a arrepentir__.    
E-------|--------|-------2-3-2-------|-------|-------|-------2-----2---2-|
B-------|--------|-----3-------3-----|-------|-------|-----2---2---------|
G-----4-|-----2--|---2-----------2---|-----4-|-----2-|---2-------2---2---|
D---5---|---4----|-0---------------0-|---5---|---4---|-4-----------------|
A-5-----|-4------|-------------------|-5-----|-4-----|-------------------|
e-------|--------|-------------------|-------|-------|-------------------|


D              F#m            Bm           Bm 
E-2-2-2-2-2-2-|-2-2-2-2-2-2-|-2-2-2-2-2-2-|-2-2-2-2-2-2--|
B-3-3-3-3-3-3-|-2-2-2-2-2-2-|-3-3-3-3-3-3-|-3-3-3-3-3-3--|
G-2-2-2-2-2-2-|-2-2-2-2-2-2-|-4-4-4-4-4-4-|-4-4-4-4-4-4--|
D-0-0-0-0-0-0-|-4-4-4-4-4-4-|-4-4-4-4-4-4-|-4-4-4-4-4-4--|
A-0-0---------|-4-4---------|-2-2---------|-2-2----------|
e-0-----------|-2-----------|-2-----------|-3------------|

D              F#m            Bm           Bm
E-2-2-2-2-2-2-|-2-2-2-2-2-2-|-0-0-0-0-0-0-|-3-3-3-3-3-3--|
B-3-3-3-3-3-3-|-2-2-2-2-2-2-|-3-3-3-3-3-3-|-0-0-0-0-0-0--|
G-2-2-2-2-2-2-|-2-2-2-2-2-2-|-4-4-4-4-4-4-|-0-0-0-0-0-0--|
D-0-0-0-0-0-0-|-4-4-4-4-4-4-|-4-4-4-4-4-4-|-0-0-0-0-0-0--|
A-0-0---------|-4-4---------|-2-2---------|-2-2----------|
e-0-----------|-2-----------|-2-----------|-3------------|


E-----------|---------------------------------------|-------------------------------------------|
B-----------|--------3-----------3------------------|--------3---------------3------------------|
G-4/-----4--|-2/7--------6---2-------6---4/--6------|-2/7--------6---2-3-2-------6---4--6-------|
D-4/-----4--|---------------------------------------|-------------------------------------------|
A-2/-----2--|------------------------------------2/-|----------------------------------------2/-|
e-----------|---------------------------------------|-------------------------------------------|

E-------5--------------5------------------------|-------5--------------5---------------------------|
B---------3-5-3----------3-5-3------------------|---------3-5-3----------3h5p3---------------------|
G-2/7-----------6-4------------6-4-6-----6------|-2/7-----------6-4------------6p4h6------6--------|
D------------------------------------5----------|------------------------------------5-------------|
A-------------------------------------------2/--|--------------------------------------------2/-2-2|
e-----------------------------------------------|--------------------------------------------------|

E------------------|                                                     
B------------------|
G-4/----4--4--4--4-|
D-4/----4--4--4--4-|
A-2/----2--2--2--2-|
e------------------|


  F#m    Bm        D                  F#m     G       Bm
   y no hay oración             capaz de decidir por mi
E-------------------------------|-------------------------------|
B-------------------------------|-------------------------------|
G-------------------------------|-------------------------------|
D-9/--------7/--------5/--------|-9/--------7/--------5/--------|
A-9/--------7/--------5/--------|-9/--------7/--------5/--------|
e-7/--------5/--------3/--------|-7/--------5/--------3/--------|
         
  F#m    Bm        D                  F#m     G       Bm
    oh señor, no queda otra opción y jamás me vuelvo a arrepentir.    
E-------------------------------|-------------------------------|
B-------------------------------|-------------------------------|
G-------------------------------|-------------------------------|
D-9/--------7/--------5/--------|-9/--------7/--------5/--------|
A-9/--------7/--------5/--------|-9/--------7/--------5/--------|
e-7/--------5/--------3/--------|-7/--------5/--------3/--------|

  F#m    Bm        D                  F#m     G       Bm
 hu! No.. no... no... hu hu      hu! No... no... no  hu hu
E-------------------------------|-------------------------------|
B-------------------------------|-------------------------------|
G-------------------------------|-------------------------------|
D-9/--------7/--------5/--------|-9/--------7/--------5/--------|
A-9/--------7/--------5/--------|-9/--------7/--------5/--------|
e-7/--------5/--------3/--------|-7/--------5/--------3/--------|

  F#m    Bm        D                  F#m     G       Bm
 hu! No..........
E-------------------------------|-------------------------------|
B-------------------------------|-------------------------------|
G-------------------------------|-------------------------------|
D-9/--------7/--------5/--------|-9/--------7/--------4/--------|
A-9/--------7/--------5/--------|-9/--------7/--------4/--------|
e-7/--------5/--------3/--------|-7/--------5/--------2/--------|

F#m
E-------------------|                                                     
B-------------------|
G--------------4/---|
D-4/-----------4/---|
A-4/-----------2/---|
e-2/----------------|

BUENO ESTO ES ORACIÓN Y ESPERO QUE LES GUSTE YA QUE TUVE
UN POCO DE PACIENCIA PARA SACAR ESOS PEQUEÑOS DETALLES QUE 
SIEMPRE FALTAN.
DUDAS: zhechicero_hds91@

            
            
Suggest correction
Creating personal tab
Creating personal tab
You can edit any tab online and save it as your Personal.

You can edit, replace or remove any tab part or add personal notes – all changes will be seen only by you.

Personal tabs can be accessed anytime from any device, even offline.
Learn more »
Give kudos to tab author, rate the tab!
1 2 3 4 5
comments
print report bad tab
guest
Wanna post a correction for this tab? Suggest correction