Oops, an error
Loading. Please wait.

Para Siempre tab

version 2
version 2

Whole song

45 views 1 this week
no commentswrite comment
1 2 3 4 5
3 more votes to show rating
add to favorites
×
Save as Personal and add changes to this tab that will be seen only by you. Learn more ›
×
You can save this tab as Personal to edit and correct it or add notes. All changes will be seen only by you. Learn more »
launch autoscroll
font size
0
reset
how to read this tab
guitar tuner
edit
Autoscroll
slow
fast
+/-
esc
set tempo
stop
esta el la guit. principal la segunda está aparte

E||------------------|------------------------|------------------------|
B||------------------|------------------------|------------------------|
G||------------------|------------------------|------------------------|
D||------------------|------------------------|------------------------|
A||------------------|------------------------|------------------------|
E||------------------|--0----3--0--3--0----3--|----0--3--0--3--0----3--|


                                                                          
------------------------|-----------------------|------------------------|
------------------------|-----------------------|------------------------|
------------------------|-----------------------|------------------------|
------------------------|-----------------------|------------------------|
------------------------|----------------0------|------------------------|
--0----3--0--3--0----3--|----0--3--0--3---------|--0----3--0--3--0----3--|


                                                                          
------------------------|------------------------|-----------------------|
------------------------|------------------------|-----------------------|
------------------------|------------------------|-----------------------|
------------------------|------------------------|-----------------------|
------------------------|------------------------|----------------5------|
----0--3--0--3--0----3--|--0----3--0--3--0----3--|----0--3--0--3--5------|


                                                               
------------------|------------------|------------------------|
------------------|------------------|------------------------|
------------------|------------------|------------------------|
------------------|------------------|------------------------|
------------------|------------------|------------------------|
------------------|------------------|--0----3--0--3--0----3--|


                                                                          
------------------------|------------------------|-----------------------|
------------------------|------------------------|-----------------------|
------------------------|------------------------|-----------------------|
------------------------|------------------------|-----------------------|
------------------------|------------------------|----------------0------|
----0--3--0--3--0----3--|--0----3--0--3--0----3--|----0--3--0--3---------|


                                                                           
------------------------|------------------------|------------------------|
------------------------|------------------------|------------------------|
------------------------|------------------------|------------------------|
------------------------|------------------------|------------------------|
------------------------|------------------------|------------------------|
--0----3--0--3--0----3--|----0--3--0--3--0----3--|--0----3--0--3--0----3--|


                                                              
-----------------------|------------------|------------------|
-----------------------|------------------|------------------|
-----------------------|------------------|------------------|
-----------------------|------------------|------------------|
----------------2------|------------------|------------------|
----0--3--0--3--2------|------------------|------------------|


                                                                 
------------------|------------------|--------------------------|
------------------|------------------|--------------------------|
------------------|------------------|--------------------------|
------------------|------------------|--5--5--5--5--5--5--5--5--|
------------------|------------------|--3--3--3--3--3--3--3--3--|
------------------|------------------|--------------------------|


                                                      
--------------------------|--------------------------|
--------------------------|--------------------------|
--------------------------|--------------------------|
--5--5--5--5--5--5--5--5--|--7--7--7--7--7--7--7--7--|
--3--3--3--3--3--3--3--3--|--5--5--5--5--5--5--5--5--|
--------------------------|--------------------------|


                                                      
--------------------------|--------------------------|
--------------------------|--------------------------|
--------------------------|--------------------------|
--7--7--7--7--7--7--7--7--|--9--9--9--9--9--9--9--9--|
--5--5--5--5--5--5--5--5--|--7--7--7--7--7--7--7--7--|
--------------------------|--------------------------|


                                                      
--------------------------|--------------------------|
--------------------------|--------------------------|
--------------------------|--------------------------|
--9--9--9--9--9--9--9--9--|--5--5--5--5--5--5--5--5--|
--7--7--7--7--7--7--7--7--|--3--3--3--3--3--3--3--3--|
--------------------------|--------------------------|


                                                      
--------------------------|--------------------------|
--------------------------|--------------------------|
--------------------------|--------------------------|
--5--5--5--5--5--5--5--5--|--------------------------|
--3--3--3--3--3--3--3--3--|--3--3--3--3--3--3--3--3--|
--------------------------|--1--1--1--1--1--1--1--1--|


                                                      
--------------------------|--------------------------|
--------------------------|--------------------------|
--------------------------|--------------------------|
--------------------------|--------------------------|
--3--3--3--3--3--3--3--3--|--5--5--5--5--5--5--5--5--|
--1--1--1--1--1--1--1--1--|--3--3--3--3--3--3--3--3--|


                                                      
--------------------------|--------------------------|
--------------------------|--------------------------|
--------------------------|--------------------------|
--------------------------|--9--9--9--9--9--9--9--9--|
--5--5--5--5--5--5--5--5--|--7--7--7--7--7--7--7--7--|
--3--3--3--3--3--3--3--3--|--------------------------|


                                                      
--------------------------|--------------------------|
--------------------------|--------------------------|
--------------------------|--------------------------|
--9--9--9--9--9--9--9--9--|--5--5--5--5--5--5--5--5--|
--7--7--7--7--7--7--7--7--|--3--3--3--3--3--3--3--3--|
--------------------------|--------------------------|


                                                                             
--------------------------|------------------------|------------------------|
--------------------------|------------------------|------------------------|
--------------------------|------------------------|------------------------|
--7--7--7--7--7--7--7--7--|------------------------|------------------------|
--5--5--5--5--5--5--5--5--|------------------------|------------------------|
--------------------------|--0----3--0--3--0----3--|----0--3--0--3--0----3--|


                                                                          
------------------------|-----------------------|------------------------|
------------------------|-----------------------|------------------------|
------------------------|-----------------------|------------------------|
------------------------|-----------------------|------------------------|
------------------------|----------------0------|------------------------|
--0----3--0--3--0----3--|----0--3--0--3---------|--0----3--0--3--0----3--|


                                                                          
------------------------|------------------------|-----------------------|
------------------------|------------------------|-----------------------|
------------------------|------------------------|-----------------------|
------------------------|------------------------|-----------------------|
------------------------|------------------------|----------------2------|
----0--3--0--3--0----3--|--0----3--0--3--0----3--|----0--3--0--3--2------|


                                                                            
------------------|------------------|------------------|------------------|
------------------|------------------|------------------|------------------|
------------------|------------------|------------------|------------------|
------------------|------------------|------------------|------------------|
------------------|------------------|------------------|------------------|
------------------|------------------|------------------|------------------|


                                                      
--------------------------|--------------------------|
--------------------------|--------------------------|
--------------------------|--------------------------|
--5--5--5--5--5--5--5--5--|--5--5--5--5--5--5--5--5--|
--3--3--3--3--3--3--3--3--|--3--3--3--3--3--3--3--3--|
--------------------------|--------------------------|


                                                      
--------------------------|--------------------------|
--------------------------|--------------------------|
--------------------------|--------------------------|
--7--7--7--7--7--7--7--7--|--7--7--7--7--7--7--7--7--|
--5--5--5--5--5--5--5--5--|--5--5--5--5--5--5--5--5--|
--------------------------|--------------------------|


                                                      
--------------------------|--------------------------|
--------------------------|--------------------------|
--------------------------|--------------------------|
--9--9--9--9--9--9--9--9--|--9--9--9--9--9--9--9--9--|
--7--7--7--7--7--7--7--7--|--7--7--7--7--7--7--7--7--|
--------------------------|--------------------------|


                                                      
--------------------------|--------------------------|
--------------------------|--------------------------|
--------------------------|--------------------------|
--5--5--5--5--5--5--5--5--|--5--5--5--5--5--5--5--5--|
--3--3--3--3--3--3--3--3--|--3--3--3--3--3--3--3--3--|
--------------------------|--------------------------|


                                                      
--------------------------|--------------------------|
--------------------------|--------------------------|
--------------------------|--------------------------|
--------------------------|--------------------------|
--3--3--3--3--3--3--3--3--|--3--3--3--3--3--3--3--3--|
--1--1--1--1--1--1--1--1--|--1--1--1--1--1--1--1--1--|


                                                      
--------------------------|--------------------------|
--------------------------|--------------------------|
--------------------------|--------------------------|
--------------------------|--------------------------|
--5--5--5--5--5--5--5--5--|--5--5--5--5--5--5--5--5--|
--3--3--3--3--3--3--3--3--|--3--3--3--3--3--3--3--3--|


                                                      
--------------------------|--------------------------|
--------------------------|--------------------------|
--------------------------|--------------------------|
--9--9--9--9--9--9--9--9--|--9--9--9--9--9--9--9--9--|
--7--7--7--7--7--7--7--7--|--7--7--7--7--7--7--7--7--|
--------------------------|--------------------------|


                                                      
--------------------------|--------------------------|
--------------------------|--------------------------|
--------------------------|--------------------------|
--5--5--5--5--5--5--5--5--|--7--7--7--7--7--7--7--7--|
--3--3--3--3--3--3--3--3--|--5--5--5--5--5--5--5--5--|
--------------------------|--------------------------|


                                                                           
--------------------------|----------------------|------------------------|
--8--8--8--8--8--8--8--8--|--8--7-----8----------|--8--7-----8----7-------|
--------------------------|--------7-------------|--------7----------7----|
--------------------------|----------------------|------------------------|
--------------------------|----------------------|------------------------|
--------------------------|----------------------|------------------------|


                                                                    
----------------------|-------------------------|------------------|
--8--7-----8----------|--8--7-----8----7-----8--|------------------|
--------7-------------|--------7----------7-----|------------------|
----------------------|-------------------------|------------------|
----------------------|-------------------------|------------------|
----------------------|-------------------------|------------------|


                                                  
-------------------------|-----------------------|
--8--7-----8----7-----8--|-----------15----------|
--------7----------7-----|----7/-14--------------|
-------------------------|-----------------------|
-------------------------|-----------------------|
-------------------------|-----------------------|


                                                        
--------14------15--14----------|----------------------|
----15------15----------15------|--8--7-----8----------|
----------------------------14--|--------7-------------|
--------------------------------|----------------------|
--------------------------------|----------------------|
--------------------------------|----------------------|


                                                                          
------------------------|----------------------|-------------------------|
--8--7-----8----7-------|--8--7-----8----------|--8--7-----8----7-----8--|
--------7----------7----|--------7-------------|--------7----------7-----|
------------------------|----------------------|-------------------------|
------------------------|----------------------|-------------------------|
------------------------|----------------------|-------------------------|


                                                                
------------------|-------------------------|------------------|
------------------|--8--7-----8----7--------|------------------|
------------------|--------7----------7--7--|------------------|
------------------|-------------------------|------------------|
------------------|-------------------------|------------------|
------------------|-------------------------|------------------|


                                                                            
------------------|------------------|------------------|------------------|
------------------|------------------|------------------|------------------|
------------------|------------------|------------------|------------------|
------------------|------------------|------------------|------------------|
------------------|------------------|------------------|------------------|
------------------|------------------|------------------|------------------|


                                                                     
------------------|------------------------|------------------------|
------------------|------------------------|------------------------|
------------------|------------------------|------------------------|
------------------|------------------------|------------------------|
------------------|------------------------|------------------------|
------------------|--0----3--0--3--0----3--|----0--3--0--3--0----3--|


                                                                          
------------------------|-----------------------|------------------------|
------------------------|-----------------------|------------------------|
------------------------|-----------------------|------------------------|
------------------------|-----------------------|------------------------|
------------------------|----------------0------|------------------------|
--0----3--0--3--0----3--|----0--3--0--3---------|--0----3--0--3--0----3--|


                                                                          
------------------------|------------------------|-----------------------|
------------------------|------------------------|-----------------------|
------------------------|------------------------|-----------------------|
------------------------|------------------------|-----------------------|
------------------------|------------------------|----------------0------|
----0--3--0--3--0----3--|--0----3--0--3--0----3--|----0--3--0--3---------|


                                                                           
------------------------|------------------------|------------------------|
------------------------|------------------------|------------------------|
------------------------|------------------------|------------------------|
------------------------|------------------------|------------------------|
------------------------|------------------------|------------------------|
--0----3--0--3--0----3--|----0--3--0--3--0----3--|--0----3--0--3--0----3--|


                                                              
-----------------------|------------------|------------------|
-----------------------|------------------|------------------|
-----------------------|------------------|------------------|
-----------------------|------------------|------------------|
----------------2------|------------------|------------------|
----0--3--0--3--2------|------------------|------------------|


                                                                 
------------------|------------------|--------------------------|
------------------|------------------|--------------------------|
------------------|------------------|--------------------------|
------------------|------------------|--5--5--5--5--5--5--5--5--|
------------------|------------------|--3--3--3--3--3--3--3--3--|
------------------|------------------|--------------------------|


                                                      
--------------------------|--------------------------|
--------------------------|--------------------------|
--------------------------|--------------------------|
--5--5--5--5--5--5--5--5--|--7--7--7--7--7--7--7--7--|
--3--3--3--3--3--3--3--3--|--5--5--5--5--5--5--5--5--|
--------------------------|--------------------------|


                                                      
--------------------------|--------------------------|
--------------------------|--------------------------|
--------------------------|--------------------------|
--7--7--7--7--7--7--7--7--|--9--9--9--9--9--9--9--9--|
--5--5--5--5--5--5--5--5--|--7--7--7--7--7--7--7--7--|
--------------------------|--------------------------|


                                                      
--------------------------|--------------------------|
--------------------------|--------------------------|
--------------------------|--------------------------|
--9--9--9--9--9--9--9--9--|--5--5--5--5--5--5--5--5--|
--7--7--7--7--7--7--7--7--|--3--3--3--3--3--3--3--3--|
--------------------------|--------------------------|


                                                      
--------------------------|--------------------------|
--------------------------|--------------------------|
--------------------------|--------------------------|
--5--5--5--5--5--5--5--5--|--------------------------|
--3--3--3--3--3--3--3--3--|--3--3--3--3--3--3--3--3--|
--------------------------|--1--1--1--1--1--1--1--1--|


                                                      
--------------------------|--------------------------|
--------------------------|--------------------------|
--------------------------|--------------------------|
--------------------------|--------------------------|
--3--3--3--3--3--3--3--3--|--5--5--5--5--5--5--5--5--|
--1--1--1--1--1--1--1--1--|--3--3--3--3--3--3--3--3--|


                                                      
--------------------------|--------------------------|
--------------------------|--------------------------|
--------------------------|--------------------------|
--------------------------|--9--9--9--9--9--9--9--9--|
--5--5--5--5--5--5--5--5--|--7--7--7--7--7--7--7--7--|
--3--3--3--3--3--3--3--3--|--------------------------|


                                                      
--------------------------|--------------------------|
--------------------------|--------------------------|
--------------------------|--------------------------|
--9--9--9--9--9--9--9--9--|--5--5--5--5--5--5--5--5--|
--7--7--7--7--7--7--7--7--|--3--3--3--3--3--3--3--3--|
--------------------------|--------------------------|


                                                                             
--------------------------|--------------------------|----------------------|
--------------------------|--8--8--8--8--8--8--8--8--|--8--7-----8----------|
--------------------------|--------------------------|--------7-------------|
--7--7--7--7--7--7--7--7--|--------------------------|----------------------|
--5--5--5--5--5--5--5--5--|--------------------------|----------------------|
--------------------------|--------------------------|----------------------|


                                                                          
------------------------|----------------------|-------------------------|
--8--7-----8----7-------|--8--7-----8----------|--8--7-----8----7-----8--|
--------7----------7----|--------7-------------|--------7----------7-----|
------------------------|----------------------|-------------------------|
------------------------|----------------------|-------------------------|
------------------------|----------------------|-------------------------|


                                                                     
------------------|-------------------------|-----------------------|
------------------|--8--7-----8----7-----8--|-----------15----------|
------------------|--------7----------7-----|----7/-14--------------|
------------------|-------------------------|-----------------------|
------------------|-------------------------|-----------------------|
------------------|-------------------------|-----------------------|


                                                        
--------14------15--14----------|----------------------|
----15------15----------15------|--8--7-----8----------|
----------------------------14--|--------7-------------|
--------------------------------|----------------------|
--------------------------------|----------------------|
--------------------------------|----------------------|


                                                                          
------------------------|----------------------|-------------------------|
--8--7-----8----7-------|--8--7-----8----------|--8--7-----8----7-----8--|
--------7----------7----|--------7-------------|--------7----------7-----|
------------------------|----------------------|-------------------------|
------------------------|----------------------|-------------------------|
------------------------|----------------------|-------------------------|


                                                                
------------------|-------------------------|------------------|
------------------|--8--7-----8----7--------|------------------|
------------------|--------7----------7--7--|------------------|
------------------|-------------------------|------------------|
------------------|-------------------------|------------------|
------------------|-------------------------|------------------|


                                                                            
------------------|------------------|------------------|------------------|
------------------|------------------|------------------|------------------|
------------------|------------------|------------------|------------------|
------------------|------------------|------------------|------------------|
------------------|------------------|------------------|------------------|
------------------|------------------|------------------|------------------|


                                                                            
------------------|------------------|------------------|------------------|
------------------|------------------|------------------|------------------|
------------------|------------------|------------------|------------------|
------------------|------------------|------------------|------------------|
------------------|------------------|------------------|------------------|
------------------|------------------|------------------|------------------|


                                                                            
------------------|------------------|------------------|------------------|
------------------|------------------|------------------|------------------|
------------------|------------------|------------------|------------------|
------------------|------------------|------------------|------------------|
------------------|------------------|------------------|------------------|
------------------|------------------|------------------|------------------|


                                                         
------------------|------------------|------------------|
------------------|------------------|------------------|
------------------|------------------|------------------|
------------------|------------------|------------------|
------------------|------------------|------------------|
------------------|------------------|------------------|


                                                      
--------------------------|--------------------------|
--------------------------|--------------------------|
--------------------------|--------------------------|
--5--5--5--5--5--5--5--5--|--5--5--5--5--5--5--5--5--|
--3--3--3--3--3--3--3--3--|--3--3--3--3--3--3--3--3--|
--------------------------|--------------------------|


                                                      
--------------------------|--------------------------|
--------------------------|--------------------------|
--------------------------|--------------------------|
--7--7--7--7--7--7--7--7--|--7--7--7--7--7--7--7--7--|
--5--5--5--5--5--5--5--5--|--5--5--5--5--5--5--5--5--|
--------------------------|--------------------------|


                                                      
--------------------------|--------------------------|
--------------------------|--------------------------|
--------------------------|--------------------------|
--9--9--9--9--9--9--9--9--|--9--9--9--9--9--9--9--9--|
--7--7--7--7--7--7--7--7--|--7--7--7--7--7--7--7--7--|
--------------------------|--------------------------|


                                                                         
--------------------------|--------------------------|------------------|
--------------------------|--------------------------|------------------|
--------------------------|--------------------------|------------------|
--5--5--5--5--5--5--5--5--|--7--7--7--7--7--7--7--7--|------------------|
--3--3--3--3--3--3--3--3--|--5--5--5--5--5--5--5--5--|------------------|
--------------------------|--------------------------|------------------|


                                                         
------------------|------------------|------------------|
------------------|------------------|------------------|
------------------|------------------|------------------|
------------------|------------------|------------------|
------------------|------------------|------------------|
------------------|------------------|------------------|


                                                                           
------------------------|------------------------|------------------------|
------------------------|------------------------|------------------------|
------------------------|------------------------|------------------------|
------------------------|------------------------|------------------------|
------------------------|------------------------|------------------------|
--0----3--0--3--0----3--|----0--3--0--3--0----3--|--0----3--0--3--0----3--|


                                                                          
-----------------------|------------------------|------------------------|
-----------------------|------------------------|------------------------|
-----------------------|------------------------|------------------------|
-----------------------|------------------------|------------------------|
----------------0------|------------------------|------------------------|
----0--3--0--3---------|--0----3--0--3--0----3--|----0--3--0--3--0----3--|


                                                                          
------------------------|-----------------------|------------------------|
------------------------|-----------------------|------------------------|
------------------------|-----------------------|------------------------|
------------------------|-----------------------|------------------------|
------------------------|----------------0------|------------------------|
--0----3--0--3--0----3--|----0--3--0--3---------|--0----3--0--3--0----3--|


                                                                               
------------------------|--------------------------|--------------------------|
------------------------|--------------------------|--------------------------|
------------------------|--------------------------|--------------------------|
------------------------|--5--5--5--5--5--5--5--5--|--7--7--7--7--7--7--7--7--|
------------------------|--3--3--3--3--3--3--3--3--|--5--5--5--5--5--5--5--5--|
----0--3--0--3--0----3--|--------------------------|--------------------------|


                                                                            
------------------|------------------|------------------|------------------|
------------------|------------------|------------------|------------------|
------------------|------------------|------------------|------------------|
------------------|------------------|------------------|------------------|
------------------|------------------|------------------|------------------|
------------------|------------------|------------------|------------------|


                                                                           
------------------------|------------------------|------------------------|
------------------------|------------------------|------------------------|
------------------------|------------------------|------------------------|
------------------------|------------------------|------------------------|
------------------------|------------------------|------------------------|
--0----3--0--3--0----3--|----0--3--0--3--0----3--|--0----3--0--3--0----3--|


                                                                          
-----------------------|------------------------|------------------------|
-----------------------|------------------------|------------------------|
-----------------------|------------------------|------------------------|
-----------------------|------------------------|------------------------|
----------------0------|------------------------|------------------------|
----0--3--0--3---------|--0----3--0--3--0----3--|----0--3--0--3--0----3--|


                                                                          
------------------------|-----------------------|------------------------|
------------------------|-----------------------|------------------------|
------------------------|-----------------------|------------------------|
------------------------|-----------------------|------------------------|
------------------------|----------------0------|------------------------|
--0----3--0--3--0----3--|----0--3--0--3---------|--0----3--0--3--0----3--|


                                                                           
------------------------|------------------------|------------------------|
------------------------|------------------------|------------------------|
------------------------|------------------------|------------------------|
------------------------|------------------------|------------------------|
------------------------|------------------------|------------------------|
----0--3--0--3--0----3--|----0--3--0--3--0----3--|--0----3--0--3--0----3--|


                                              
-----------------------|--------------------||
-----------------------|--17----------------||
-----------------------|--21----------------||
-----------------------|--------------------||
----------------0------|--------------------||
----0--3--0--3---------|--------------------||

            
            
Suggest correction
Creating personal tab
Creating personal tab
You can edit any tab online and save it as your Personal.

You can edit, replace or remove any tab part or add personal notes – all changes will be seen only by you.

Personal tabs can be accessed anytime from any device, even offline.
Learn more »
Give kudos to tab author, rate the tab!
1 2 3 4 5
comments
print report bad tab
guest
Wanna post a correction for this tab? Suggest correction