Oops, an error
Loading. Please wait.

Sangre Hirviendo tab

version 1
version 1

Whole song

Interactive

110 views 1 this week
no commentswrite comment
1 2 3 4 5
3 more votes to show rating
add to favorites
×
Save as Personal and add changes to this tab that will be seen only by you. Learn more ›
×
You can save this tab as Personal to edit and correct it or add notes. All changes will be seen only by you. Learn more »
launch autoscroll
font size
0
reset
how to read this tab
guitar tuner
edit
Autoscroll
slow
fast
+/-
esc
set tempo
stop
Al fin el tab de sangre hirviendo 
a peticion de los mas buscados del Atame

Standar tuning
Fig 1
e-------------------------------------------------------------
b-------------------------------------------------------------
g-------------------------------------------------------------
d-------------------------------------------------------------
a------7-----8p7p5-7------8p7p5--7------8p7p5--5--------------
e------5-5-5-------5--5-5--------5--5-5--------3--5-3p0-0-3---

fig 2
-------------------------------------------------------------
-------------------------------------------------------------
-------------------------------------------------------------
-------------------------------------------------------------
------7-----8p7p5-7------8p7p5--7------8p7p5--5--8-7-5-------
------5-5-5-------5--5-5--------5--5-5--------3--------8-7-5-


tocar una vez mas fig 1 y 2
 

PIERDE EL CIELO EQUILIBRIO
fig 1 

CAE DERRUMBADO ENCIMA DE TI
fig 1 

ESCONDE TU MUNDO
fig 1


-----------3---------------------------
-----------5-------------5-5-5-5-5-----
-----------5------5---5--5-5-5-5-5-----
-----------5------5---5--5-5-5-5-5-----
-----------3------3---3--3-3-3-3-3-----
---------------------------------------
Que nadie lo vea________


CIERRA LAS PUERTAS Y ESPERA 
----------------------------------------------
----------------------------------------------
----------------------------------------------
--5--5-5-5-5----3--3-3-3-3---5--5-5-5-5-------
--5--5-5-5-5----3--3-3-3-3---5--5-5-5-5-------
--3--3-3-3-3----1--1-1-1-1---3--3-3-3-3-------


QUE HA LLEGADO TU HORA 
-----------------------------
-----------------------------
-----------------------------
----3--3-3-3-3--5--5-5-5-5---
----3--3-3-3-3--5--5-5-5-5---
----1--1-1-1-1--3--3-3-3-3---
                


Y DUDO QUE ALGUIEN MEREZCA UN SEGUNDO ASI
--------------------------------------------------------
-----------------2--------------------------------------
-----------------2--------------4---------10-9-7--------
----------0h2h3--2--------------5----------------10-9-7vibrato-
-----0h2h3-------0--------------5-----------------------
--1h3---------------------------3-----------------------
*

DUELE EL DEDO EN LA LLAGA 
fig 1  

CONTEMPLA EL VACIO DESDE ESTE RINCON
fig 1 

MUERETE A SOLAS
fig  1 

-----------3---------------------------
-----------5-------------5-5-5-5-5-----
-----------5------5---5--5-5-5-5-5-----
-----------5------5---5--5-5-5-5-5-----
-----------3------3---3--3-3-3-3-3-----
---------------------------------------
Nadie te enseña_________

CIERRA LAS PUERTAS Y ESPERA 
-----------------------------------------
-----------------------------------------
-----------------------------------------
-5--5-5-5-5--3----------0h2h3--5--5-5-5-5
-5--5-5-5-5--3----0h2h3--------5--5-5-5-5
-3--3-3-3-3--1-1h3-------------3--3-3-3-3


QUE HA LLEGADO TU HORA 
-----------------------------------------
-----------------------------------------
-----------------------------------------
-5--5-5-5-5--3----------0h2h3--5--5-5-5-5
-5--5-5-5-5--3----0h2h3--------5--5-5-5-5
-3--3-3-3-3--1-1h3-------------3--3-3-3-3

Y DUDO QUE ALGUIEN MEREZCA UN SEGUNDO ASI
---------------------------------------------------------
------------------2--------------------------------------
2-----------------2--------------4---------10-9-7--------
3----------0h2h3--2--------------5----------------10-9-7vibrato-
3-----0h2h3-------0--------------5-----------------------
1--1h3---------------------------3-----------------------
*

Am            C         G 
 BURBUJAS DE SANGRE HIRVIENDO 
----------------------------
------------------------12--
---5--------9-----------12--
---7--------10----------12--
---7--------10----------10--
---5--------8---------------

       F        Am
 CAEN DENTRO DE TI
--------------------
--10----------------
--10-------------5--
--10-------------7--
--8--------------7--
-----------------5--


        C                  G
 LA SORDERA QUE FUE MI ALIMENTO
----------------------------
-------------------------12-
---10--------------------12-
---10--------------------12-
---10--------------------10-
---8------------------------

Am            C         G
 BURBUJAS DE SANGRE HIRVIENDO 
----------------------------
------------------------12--
---5--------9-----------12--
---7--------10----------12--
---7--------10----------10--
---5--------8---------------
       F        Am


 CAEN DENTRO DE TI
---------------------------------
--10-----------------------------
--10--------------------------5--
--10--------------------------7--
--8---------------------------7--
------------------------------5--
 
------------------------------
------------------------------
---------12---12h14vib--------
---12h14---14-----------------
------------------------------
------------------------------

      
QUE ALGUIEN LE GRITE AL VIENTO
----------------------------
-------------------------12-
---10--------------------12-
---10--------------------12-
---10--------------------10-
---8------------------------


---------------------------
-p.h.----------------------
-14^14p12---12-------------
----------14--14p12--------
--------------------12vib--
---------------------------


PUEDES CONTAR CONMIGO
-----------------------------------------
-----------------------------------------
-----------------------------------------
-5--5-5-5-5--3----------0h2h3--5--5-5-5-5
-5--5-5-5-5--3----0h2h3--------5--5-5-5-5
-3--3-3-3-3--1-1h3-------------3--3-3-3-3

-----------------------------------------
-----------------------------------------
-----------------------------------------
-5--5-5-5-5--3----------0h2h3--5--5-5-5-5
-5--5-5-5-5--3----0h2h3--------5--5-5-5-5
-3--3-3-3-3--1-1h3-------------3--3-3-3-3


PUEDES CONTAR CONMIGO_________
--------------------------------------------------------
-----------------2--------------------------------------
-----------------2--------------4---------10-9-7--------
----------0h2h3--2--------------5----------------10-9-7vibrato-
-----0h2h3-------0--------------5-----------------------
--1h3---------------------------3-----------------------
*

TEME AL RUMOR DE LA RISA 
fig 1 
NO ENCUENTRO EL MOTIVO QUE SE ATRAGANTO
fig 1 

ESCUPELO PRONTO
fig 1

-----------3---------------------------
-----------5-------------5-5-5-5-5-----
-----------5------5---5--5-5-5-5-5-----
-----------5------5---5--5-5-5-5-5-----
-----------3------3---3--3-3-3-3-3-----
---------------------------------------
Maldita sea______


 CIERRA LAS PUERTAS Y ESPERA 
----------------------------------------------
----------------------------------------------
----------------------------------------------
--5--5-5-5-5----3--3-3-3-3---5--5-5-5-5-------
--5--5-5-5-5----3--3-3-3-3---5--5-5-5-5-------
--3--3-3-3-3----1--1-1-1-1---3--3-3-3-3-------  

 QUE HA LLEGADO TU HORA 
-----------------------------
-----------------------------
-----------------------------
----3--3-3-3-3--5--5-5-5-5---
----3--3-3-3-3--5--5-5-5-5---
----1--1-1-1-1--3--3-3-3-3---       
 Y DUDO QUE ALGUIEN MEREZCA UN SEGUNDO ASI
--------------------------------------------------------
-----------------2--------------------------------------
-----------------2--------------4---------10-9-7--------
----------0h2h3--2--------------5----------------10-9-7vibrato-
-----0h2h3-------0--------------5-----------------------
--1h3---------------------------3-----------------------
*

Coro:
BURBUJAS DE SANGRE HIRVIENDO 
CAEN DENTRO DE TI
LA SORDERA QUE FUE MI ALIMENTO         fill 1
BURBUJAS DE SANGRE HIRVIENDO          e-----------15--15-17^----
CAEN DENTRO DE TI*********************b--15h17-17^--17----------
                                      g-------------------------
QUE ALGUIEN LE GRITE AL VIENTO
fill 2        
e--17^17-15--15-----------------
b----------17--17-15------------
g--------------------14-vibrato-


PUEDES CONTAR CONMIGO            
PUEDES CONTAR CONMIGO   


SOLO
  
A    C   Eb                  
A    C   Eb  D  C           

estas notas se tocan en quintas y hay que hacer 
slides a la nota anterior 

C    Eb  F#  G     D--5/8-5/8-5/8-5/8----8/10-8/10---
C    Eb  F#  G     A--3/6-3/6-3/6-3/6----6/8--6/8---- y asi sucesivamente
                   e---------------------------------


luego sigue esto:

--------------------------------------------------------------------
--------------------------------------------------------------------
--10-9-7----------10-9-7---------10-9-7-----------------7-8-7-------
--------10-9-7----------10-7-9----------10-9-7/8---8-10-------10/12-
--------------------------------------------------8-----------------
--------------------------------------------------------------------
             A5              G5               Bb5                 D5


---------------------------------------------------------------------------------
---------------------------------------------------------------------------------
--10-9-7----------10-9-7-----------------7-8-7----------5-5-5-5-------12---12-14^
--------10-9-------------10-9-------8-10------10/12-----5-5-5-5-12h14^--14-------
-------------/5---------------8---8---------------------3-3-3-3------------------
------------------------------6--------------------------------------------------
             D5             Bb5                D5       C5

OCULTA EL MAS ESTIMADO TESORO
QUIEN NO GUARDA UN SECRETO NO ES DE FIAR
ESCONDE TU MUNDO,QUE NADIE LO SEPA
CIERRA LAS PUERTAS Y ESPERA 
QUE HA LLEGADO TU HORA 
Y DUDO QUE ALGUIEN MEREZCA UN SEGUNDO ASI

Coro:
BURBUJAS DE SANGRE HIRVIENDO 
CAEN DENTRO DE TI
LA SORDERA QUE FUE MI ALIMENTO
BURBUJAS DE SANGRE HIRVIENDO 
CAEN DENTRO DE TI
QUE ALGUIEN LE GRITE AL VIENTO
PUEDES CONTAR CONMIGO
PUEDES CONTAR CONMIGO


Bueno pues despues de horas de transcripcion aqui esta
la gran rola sangre hirviendo de los heroes no la habia 
visto en ninguna parte y por eso decidi transcribirla
la verdad esta completa por no decir que exacta solo 
le falta que ustedes le pongan los slides, bends y palm mute
ya que no los puse todos la verdad transcribir es muy cansado!!

NOTAS**!!!

En el primer coro y versos no se tocan los pull offs y hammers se toca
el acorde de F completo, y se termina en F (solo se lo puse una vez)
donde esta el * pero lo lleva en todos
En el coro solo puse el power chord pero la otra guitarra sigue rasgueando
y es muy importante que en el coro una guitarra toque los acordes 
en los trastes num 8 y 10 y  la otra haga acordes abiertos
Al momento de llegar al intermedio una guitarra hace los acordes que puse
y la otra sube una octava en las tres primeras cuerdas pero con los mismos
acordes (de seguro saben de esto) haciendo slides obviamente! 
y creo que es todo
de todas maneras si tienen alguna duda escribanme a

mirsha_joker@

Mirsha Carrillo
Suggest correction
Creating personal tab
Creating personal tab
You can edit any tab online and save it as your Personal.

You can edit, replace or remove any tab part or add personal notes – all changes will be seen only by you.

Personal tabs can be accessed anytime from any device, even offline.
Learn more »
Give kudos to tab author, rate the tab!
1 2 3 4 5
comments
print report bad tab
guest
Wanna post a correction for this tab? Suggest correction