Oops, an error
Loading. Please wait.

Sangre Hirviendo tab

version 2
version 2

Whole song

Interactive

83 views 1 this week
no commentswrite comment
1 2 3 4 5
3 more votes to show rating
add to favorites
×
Save as Personal and add changes to this tab that will be seen only by you. Learn more ›
×
You can save this tab as Personal to edit and correct it or add notes. All changes will be seen only by you. Learn more »
launch autoscroll
font size
0
reset
how to read this tab
guitar tuner
edit
Autoscroll
slow
fast
+/-
esc
set tempo
stop
Intro :

e -----------0/0---------0/0-----------------------
B -5-5-6---1-1/1-5-6---1-1/1-5-6-1---3/3----------- 
G -2-2-2-2-2-----2-2-2-2-----2-2-2-2-------2-5-3-5-
D ---------------------------------3-5/5-5--------- 
A ------------------------------------------------- 
E -------------------------------------------------

e -0---------0/0---------0/0-------------1-0-----------||
B ---5-6---1-1/1-5-6---1-1/1-5-6-1---3/3-----3-1-0---1-||
G -2-2-2-2-2-----2-2-2-2-----2-2-2-2---------------2-0-||
D ---------------------------------3-5/5---------------||
A -----------------------------------------------------|| 
E -----------------------------------------------------||

                ( X 2 )

Verso :

e -0-0-----------------------0---0/0---------|---------
B ---------1---3---3/3---1-------------------|---------
G ---------------------------------3-----2/0-|---------
D -2-2-3-----2/2-2---3-----2/2-2-----0-0-----|---------
A -0-0---0-3-0/0-0-----0-3-0/0-0-------------|--0------
E -------------------------------------------|-3--3-0-3

e -0-0/0---------------------------0-0/0-------0-0-3/3-
B -------1-3-1---------1---1-----1-------1-3-1---------
G -------------2-2---2-------4-----2---------2---------
D -5-------2-----2-5-----5/5---2---2-------------------
A ---------------3-------5/5---------------------------
E -----------------------------------------------------

e ---2-0/0-------0/0---------------||
B -1-------3-3/3-----1-1-1-1-1-1-1-||
G -2-----2-----2-----5-5-5-5-5-5-5-||
D -------2-----2-------------------||
A ---------------------------------||
E ---------------------------------||

Coro :

e ----------------------------------------------------
B -1-3-3-3-----3-1/1-----3-3-3-3-3/3-1---3/3-3-3-3-3--
G ---------2/2-------2-----------2/2---2-5/5----------
D -5-------3/3---------5/5-------3/3-----5/5----------
A ---------------------5/5---------------------------- 
E ----------------------------------------------------

e -----------0-1-0/0---------------------------------||
B -3/3-----0-0---0/0-------0-1-3-0-1-0---------------||
G -2/2---2---2---2/2-2---2---------------------------|| 
D -3/3-5-------------2/2-----5-------5-3-2-0---------||
A -------------------3/3-----5-------5-------3-2-3-3-||
E ---------------------------------------------------||

                ( X 2 )

   burbujas de sangre ...

e ---------0/0-1-0-0---1-1-1-3-1-----0-0-0-------------
B -0-0-0-3-1/1-3-1-1-3-----1-3-1-3/3-1-1-1-1-1-1-1-1-1-
G -2-2-2-4-----------4-2-4-------2/3-------0-0-0-0-2-2-
D -----------------------------------------------------
A -----------------------------------------------------
E -----------------------------------------------------

e -----------------0/0-1-0-0---1-1-1-3-1-0-0-0---------
B -3-1-----0-0-0-3-1/1-3-1-1-3-----1-3-1-1-1-1-1-1-1---
G -4-2-4/4-2-2-2-4-----------4-2-4-------------------0-
D -----5/5-------------------------------5-----5-5-5-2-
A -----------------------------------------------------
E -----------------------------------------------------

e -------------------------||
B -1-----------------------||
G -2-4/4-2-0---------------||
D ---5/5-----2-0-----------||
A ---------------3---3-----||
E -----------------3---3---||

   puedes contar conmigo ...

e ---------0/0-------------------0/0-1/1---0/0-3/3/3-
B ---1-1-3-----3/3-3-1/1---1-1-3-1/1-3/3-1-1/1-3/3/3-
G -0-----4-------0-------0-2-2-4---------------4/4/4-
D -3-----5-------3-----0-----------------------------
A ---------------------------------------------------
E ---------------------------------------------------

e -1-0-------------||
B -----3-1-0---1---||
G -----------0-----||
D -----------------||
A -----------------||
E -----------------||

parte instrumental :

e -0/0-0/0--0/0---------------------------||
B -1/1-1/1--1/1-4-1-----1-1-4-1-----1-1---||
G -2/2-2/2--0/0-----0/0---------0/0-------||
D ----------------------------------------||
A ----------------------------------------||
E ----------------------------------------||

             ( X 2 )

e -2-----1-----2---3/3--|-----3-2---2-1------------||
B ---4-1---4-1---1-1/1--|-1/1---1-1---1-1---1/1----||
G -2-------2-------0/0--|-0/0---2/2---2-3-3-0/0----||
D ----------------------|---------------3---1/1----||
A ----------------------|--------------------------||
E ----------------------|--------------------------||

                               ( X 2 )

e -----1-0---------------1-0---------------1-0--------
B ---------3-1-0---1-2/2-----3-1-0---1-0/0-----3-1-0--
G -0/0-----------0---2/2-----------0---0/0------------
D -0/0---------------3/3---------------0/0------------
A -2/2------------------------------------------------
E ----------------------------------------------------

e --------------------------1-0---------------1-0-----
B --------------3-3-1-0-3/3-----3-1--------------3-1--
G --2-0-3/2---3---------2/2---------2----------------2
D ------3/3-3-----------3/3-----------3-2-0/0---------
A ------5/5-------------------------------------------
E ----------------------------------------------------

e ---------------------------------0/-0-3-0-------0--
B --------------1-3-3-1-0-3-3-3-3-1-/-1-----1-3-1---2
G ------------3-----------2-2-2-2-0-/-0--------------
D --3-0-----3-------------3-3-3-3-2-/-2--------------
A ------1/2------------------------------------------
E ---------------------------------------------------

e ------1-0----------------||
B --1/1-----3-1-0---1-0/0--||
G ----------------0---0/0--||
D --2/2---------------0/0--||
A --3/3--------------------||
E -------------------------||


para esta rola se nesecita buenas aptitudes en la guitarra
yo la toco arpegiada , exepto en la intro 
esta muy chida la rola y mucha suerte para sacarla
y ya escuchandola le agarran el ritmo 


Saludos , comentarios , aclaraciones y mentadas 
solo escribanme 
Gracias

            
            
Suggest correction
Creating personal tab
Creating personal tab
You can edit any tab online and save it as your Personal.

You can edit, replace or remove any tab part or add personal notes – all changes will be seen only by you.

Personal tabs can be accessed anytime from any device, even offline.
Learn more »
Give kudos to tab author, rate the tab!
1 2 3 4 5
comments
print report bad tab
guest
Wanna post a correction for this tab? Suggest correction