Oops, an error
Loading. Please wait.

Tumbas De Sal tab

173 views 1 this week
no commentswrite comment
1 2 3 4 5
3 more votes to show rating
add to favorites
×
Save as Personal and add changes to this tab that will be seen only by you. Learn more ›
×
You can save this tab as Personal to edit and correct it or add notes. All changes will be seen only by you. Learn more »
launch autoscroll
font size
0
reset
how to read this tab
guitar tuner
edit
Autoscroll
slow
fast
+/-
esc
set tempo
stop
Bueno esta es una de las mejores cansiones de este disco
esta tablatura me costo algo de trabajo sacar la pero esta 
asi es que disfrutenla:

El intro es asi

E--------------------------------------------------------
B--------------------------------------------------------
G-----2-------0-----2-------0-----2-------0-----2-------0
D-2--2--2-2-2---2--2--2-2-2---2--2--2-2-2---2--2--2-2-2--
A-0-0-----0--0--0-0-----0--0--0-0-----0--0--0-0-----0--0-
E--------------------------------------------------------

E-----------------------------------------------------------(0)-]
B-----3-------1-----------------------------3---------------(0)-]
G-2--2-2--2-2-------2-------0------0----2--2-2-----2---------0--]
D-0-0-----0--0--2--2--2-2-2----------2--0-0----2--2--2-2-2------]
A---------------0-0-----0--0---2--2------------0-0-----0--0-----]
E------------------------------0-0------------------------------]

Los versos van con el riff este riff tiene algunas modificaciones 
dentro del verso solo basta escuchas donde estasn esas modificaciones 

Las bebidas pscoactivas no bombean suficiente 
ni las danzas agrecivas ofrecen  lo 
mejor de ti

¿quien sabe si es mejor asi?

Abandona al espacio al azar y a la suerte
abandonalo

Si las garras felinas se empeñan en no
dejarte dormir

Ni las visitas a letrinas es lo que se tienta 

¿quien sabe si es mejor asi?

Condena al exilio las verdades amedias

Condenalas

 LAm                               RE
 Occidente... "Podria tratarse de magia chaman"...
E------------]----------------------2----------]
B------------]----------------------3----------]
G-2----------]----------------------2----------]
D-2----------]----------------------0----------]
A-0----------]---------------------------------]
E------------]---------------------------------]

LAm                                    MI
...Ideas mas torpes se han visto desde oceanos...
E------------------------------------------------]
B------------------------------------------------]
G-2----------------------------------------------]
D-2-------------------------------------2--------]
A-0-------------------------------------2--------]
E---------------------------------------0--------]

RIFF
Si las palabrasa escritas no te puedes creer

Fue  una inutil manera de marcarnos un son

Quien sabe si es mejor asi?

Completa al exilio en que nos dejo

Completalo

Coro
LAm                               RE
 Occidente... "Podria tratarse de magia chaman"...
E------------]----------------------2----------]
B------------]----------------------3----------]
G-2----------]----------------------2----------]
D-2----------]----------------------0----------]
A-0----------]---------------------------------]
E------------]---------------------------------]

LAm                                    MI
...Ideas mas torpes se han visto desde oceanos...
E------------------------------------------------]
B------------------------------------------------]
G-2----------------------------------------------]
D-2-------------------------------------2--------]
A-0-------------------------------------2--------]
E---------------------------------------0--------]

Este solo esta muy facil escuga la cancion y acomodate

solo
E--------------------5-5b-5h-7-5h-7-5h-7---4h-5-4h-5-4h-5-4h-5-
B-------------------5------------------------------------------
G--/2----2bp-0--2--5-------------------------------------------
D--------------------------------------------------------------
A--------------------------------------------------------------
E--------------------------------------------------------------

E--------------------------------------------4-----4-----4----------
B-6b--6-h-7-6h-7-6h-7-6-----------------------5-----5----5-//--13---
G----------------------7--5----0b--------------------------//14-----
D-------------------------------------------------------------------
A-------------------------------------------------------------------
E-------------------------------------------------------------------

Bueno eso es todo ya sabe dudas comentarios 
u opiniones acerca de la tablatura a mi correo 
que es "hector_miguel114@

            
            
Suggest correction
Creating personal tab
Creating personal tab
You can edit any tab online and save it as your Personal.

You can edit, replace or remove any tab part or add personal notes – all changes will be seen only by you.

Personal tabs can be accessed anytime from any device, even offline.
Learn more »
Give kudos to tab author, rate the tab!
1 2 3 4 5
comments
print report bad tab
guest
Wanna post a correction for this tab? Suggest correction