Oops, an error
Loading. Please wait.

Y Para Siempre (Rarezas) tab

50 views 1 this week
no commentswrite comment
1 2 3 4 5
3 more votes to show rating
add to favorites
×
Save as Personal and add changes to this tab that will be seen only by you. Learn more ›
×
You can save this tab as Personal to edit and correct it or add notes. All changes will be seen only by you. Learn more »
launch autoscroll
font size
0
reset
how to read this tab
guitar tuner
edit
Autoscroll
slow
fast
+/-
esc
set tempo
stop
...Y Para Siempre

Esta es la versión que aparece en el álbum ?Rarezas?
 de la canción ?Para siempre?.En lo personal me gusta
 más que la del ?Avalancha? y es muy sencilla.
Primero pongo la tablatura y al final el orden en que se toca.

Intro:

e|-----------------|-------------------|
B|-----------------|-------------------|
G|-7-----7-----7---|-------------------|
D|-7-----7-----7---|-8-----------8-----| X 2
A|-5-5-5-5-5-5-5-5-|-8-8-8-7-7h8---8-7-|
E|-----------------|-6-6-6-------------|

e|-----------------|-------------------|
B|-----------------|-------------------|
G|-7-----7-----7---|-------------------|
D|-7-----7-----7---|-8-------10--------| X 2
A|-5-5-5-5-5-5-5-5-|-8-----8----8-7----|
E|-----------------|----------------8--|


Versos 1, 2 y 3:

e|-----------------|-----------------|-----------------|-----------------|
B|-----------------|-----------------|-----------------|-----------------|
G|--7---7---7---7--|--7---7---7---7--|-----------------|-----------------|
D|--7---7---7---7--|--7---7---7---7--|-8-----8-----8---|-8-----8-----8---|
A|--5---5---5---5--|--5---5---5---5--|-8-----8-----8---|-8-----8-----8---|
E|-----------------|-----------------|-6-6-6-6-6-6-6-6-|-6-6-6-6-6-6-6-6-|
  1 No  me  tienes  que  impresionar   ni   que   seguir   la  corriente
  2 Donde   el   hombre  se  asfixia   escribe    un      testamento
  3 Hoy      nacen   las    dudas     lo    mismo  será    mañana
e|-----------------|-----------------|-----------------|-----------------|
B|-----------------|-----------------|-----------------|-----------------|
G|--7---7---7---7--|--7---7---7---7--|-----------------|-----------------|
D|--7---7---7---7--|--7---7---7---7--|-8-----8-----8---|-10----10----10--|
A|--5---5---5---5--|--5---5---5---5--|-8-----8-----8---|-10----10----10--|
E|-----------------|-----------------|-6-6-6-6-6-6-6-6-|-8-8-8-8-8-8-8-8-|
   1  Voy    a    apearme      aquí      en   la   orilla  del  presente
   2  Lágrimas    de    vinagre    y   de    chile      negro
   3  Si  es  ley  en  tus  entrañas   será   sabia   para  mi   locura
e|-----------------|-----------------|-----------------|-----------------|
B|-----------------|-----------6-----|-----------------|-----------------|
G|-7-----7-----7---|-7-----7-----7---|-----------------|-----------------|
D|-7-----7-----7---|-7-----7-------7-|-8-----8-----8---|-8-8-8-7h8-8-8-8-|
A|-5-5-5-5-5-5-5-5-|-5-5-5-5-5-------|-8-----8-----8---|-8-8-8-7h8-8-8-8-|
E|-----------------|-----------------|-6-6-6-6-6-6-6-6-|-6-6-6-5h6-6-6-6-|
   1 Con la boca amarga y el corazón  derrotado
   2 El  suplicio  es  estar  contigo  eres  la  alquimia  de  mi  veneno
   3 La  influencia  de  la  ira     y   los   impulsos   de   la   lengua
e|-----------------|-----------------|-----------------|-----------------|
B|-----------------|-6-----6---6-----|-----------------|-----------------|
G|-7-----7-----7---|-7---7-------7---|-----------------|-----------------|
D|-7-----7-----7---|-7-7-----------7-|-8-----8-----8---|-10----10----10--|
A|-5-5-5-5-5-5-5-5-|-5---------------|-8-----8-----8---|-10----10----10--|
E|-----------------|-----------------|-6-6-6-6-6-6-6-6-|-8-8-8-8-8-8-8-8-|
   1  Estoy   plantando    barreras    a  la  sombra   de   mis   pasos
   2 Los   presagios  confirmados   son  el  barco  de  los  vivos
   3 No  tengo  toda  la  vida   y    aún   hay   cajas   con   sorpresa


Coro:

e|------------------------|------------------------|
B|------------------------|------------------------|
G|-10-------10-------10---|-10-------10-------10---|
D|-10-10-10-10-10-10-10-10|-10-10-10-10-10-10-10-10|
A|-8--8--8--8--8--8--8--8-|-8--8--8--8--8--8--8--8-|
E|------------------------|------------------------|
   La    derrota     no    es    una    opción

e|------------------------|------------------------|
B|------------------------|------------------------|
G|-10-------10-------10---|-10-------10-------10---|
D|-10-10-10-10-10-10-10-10|-10-10-10-10-10-10-10-10|
A|-8--8--8--8--8--8--8--8-|-8--8--8--8--8--8--8--8-|
E|------------------------|------------------------|
     Ya     no      hay           excusas

e|-----------------|-----------------|-----------------|-----------------|
B|-----------------|-----------------|-----------------|-----------------|
G|-4--4-4-5--4-4-5-|-4-4-5--4--------|-----------------|-----------------|
D|-5---------------|--------5--------|-8-8-8-8-8-8-8-8-|-8-8-8-8-8-8-8-8-|
A|-5---------------|--------5--------|-8-8-8-8-8-8-8-8-|-8-8-8-8-8-8-8-8-|
E|-----------------|-----------------|-----------------|-----------------|
   Y    para    siempre       me    parece      mucho    tiempo

e|-------------------------|-------------------------|
B|-------------------------|-------------------------|
G|-------------------------|-------------------------|
D|-10-10-10-10-10-10-10-10-|-10-10-10-10-10-10-10-10-|
A|-10-10-10-10-10-10-10-10-|-10-10-10-10-10-10-10-10-|
E|-------------------------|-------------------------|


Puente:

e|-----------------|-----------------|
B|-----------------|-----------------|
G|-----------------|-----------------|
D|-7-----7-----7---|-8---------8-----| X 2
A|---5-5---5-5---5-|-----7-7h8---8-7-|
E|-----------------|-----------------|

e|-----------------|-----------------|
B|-----------------|-----------------|
G|-----------------|-----------------|
D|-7-----7-----7---|-8-----10--------| X 2
A|---5-5---5-5---5-|-----8----8-7----|
E|-----------------|--------------8--|

e|-----------------|
B|-----------------|
G|-7---------------|
D|-7---------------|
A|-5---------------|
E|-----------------|

En esta parte solo permanecen el bajo y la batería,
después entra la guitarra haciendo esto:

e|-----------------|-----------------|-----------------|-----------------|
B|-----------------|-----------------|-----------------|-----------------|
G|-----------------|-----------------|-----------------|-----------------|
D|----3----2----0--|----0------------|----3----2----0--|----0------------|
A|-0-1--0-1--0-1---|-0-1--1---0------|-0-1--0-1--0-1---|-0-1--1---0------|
E|-----------------|-------------1-3-|-----------------|-------------1-3-|

e|-----------------|-----------------|-----------------|-----------------|
B|-----------------|-----------------|-----------------|-----------------|
G|-----------------|-----------------|-----------------|-----------------|
D|----3----2----0--|----0------------|----3----2----0--|----0------------|
A|-0-1--0-1--0-1---|-0-1--1---0------|-0-1--0-1--0-1---|-0-1--1---0------|
E|-----------------|-------------1-3-|-----------------|-------------1-3-|

e|-----------------|-----------------|-----------------|-----------------|
B|-----------------|-----------------|-----------------|-----------------|
G|----0------------|-----------------|-----------------|-----------------|
D|---------3----2--|----0------------|----4----3----2--|----0------------|
A|-0-1--0-1--0-1---|-0-1--1---0------|-0-1--0-1--0-1---|-0-1--1---0------|
E|-----------------|-------------1-3-|-----------------|-------------1-3-|

e|-----------------|-----------------|-----------------|-----------------|
B|-----------------|-----------------|-----------------|-----------------|
G|-----------------|-----------------|-----------------|-----------------|
D|----3----2----0--|----0------------|----3----2----0--|----0------------|
A|-0-1--0-1--0-1---|-0-1--1---0------|-0-1--0-1--0-1---|-0-1--1---0------|
E|-----------------|-------------1-3-|-----------------|-------------1-3-|


Outro:

e|-----------------|-----------------|
B|-----------------|-----------------|
G|-----------------|-----------------|
D|-7-----7-----7---|-8---------8-----| X 2
A|---5-5---5-5---5-|-----7-7h8---8-7-|
E|-----------------|-----------------|

e|-----------------|-----------------|
B|-----------------|-----------------|
G|-----------------|-----------------|
D|-7-----7-----7---|-8-----10--------| X 2
A|---5-5---5-5---5-|-----8----8-7----|
E|-----------------|--------------8--|

e|-----------------|
B|-----------------|
G|-9---------------|
D|-----------------|
A|-----------------|
E|-----------------|
(Hacer vibrar esta nota)


Muy bien, este es el orden en que se toca la canción:


 1


 2


 3


Espero que les sirva de algo, cualquier duda o corrección
pueden escribirla a mi correo.

            
            
Suggest correction
Creating personal tab
Creating personal tab
You can edit any tab online and save it as your Personal.

You can edit, replace or remove any tab part or add personal notes – all changes will be seen only by you.

Personal tabs can be accessed anytime from any device, even offline.
Learn more »
Give kudos to tab author, rate the tab!
1 2 3 4 5
comments
print report bad tab
guest
Wanna post a correction for this tab? Suggest correction