Oops, an error
Loading. Please wait.

El Proceder De Manuel tab

632 views 6 this week
no commentswrite comment
1 2 3 4 5
3 more votes to show rating
add to favorites
×
Save as Personal and add changes to this tab that will be seen only by you. Learn more ›
×
You can save this tab as Personal to edit and correct it or add notes. All changes will be seen only by you. Learn more »
launch autoscroll
font size
0
reset
how to read this tab
guitar tuner
edit
Autoscroll
slow
fast
+/-
esc
set tempo
stop
Como verán, los arreglos de estas canciones pueden variar,
así que usen los que sean,
los que se sepan
La canción está originalmente en B.
Acordes: 1ra B, 2da F#, 3ra E

Intro: Solo es la primera parte

                      B                    F#
e|----14-14--14--12--14-14---14-14-12-11-9--9--------
B|----16-16--16--14--16-16---16-16-14-12-11-11-------
G|---------------------------------------------------
              E        F#  B
e|----0-0-0-2-4--4-2-4-2-0-2-2-----------------------
B|----2-2-2-4-5--5-4-5-4-2-4-4-----------------------
G|---------------------------------------------------
                      B                    F#
e|----14-14--14--12--14-14---14-14-12-11-9--9--------
B|----16-16--16--14--16-16---16-16-14-12-11-11-------
G|---------------------------------------------------
              E        F#  B
e|----0-0-0-2-4--4-2-4-2-0--2-4--2-4--2-4------------
B|----2-2-2-4-5--5-4-5-4-2-4----4----4----4----------
G|---------------------------------------------------

e|---------------------------------------------------
B|-------------------------0-0---0-0---0-0-----------
G|----------4-3-3-1-1----4-----3-----1---------------
D|------1-4------------------------------------------
A|----2---------------2--------------------2---------
E|---------------------------------------------------

e|---------------------------------------------------
B|---------------------------------------------------
G|-----4---------------4-4---------------------------
D|----4-6-4-6-4-------------4-4-4--------------------
A|--------------6-2---------------2------------------
E|---------------------------------------------------


        B             F#
Mi proceder se los diré
              E       F#       B
Soy de los llanos me llamo Manuel
                      F#
Toco perder para aprender
            E       F#         B
Matan a un hijo y matas por placer
                        F#
Los pepené y me las cobré
            E       F#       B
Comieron plomo los que no arañé
                        F#
Por solo el cienes levanté
            E        F#       B
Según mi suma mi resta es perder


Así continúa el resto de la canción junto con la música.
Suggest correction
Creating personal tab
Creating personal tab
You can edit any tab online and save it as your Personal.

You can edit, replace or remove any tab part or add personal notes – all changes will be seen only by you.

Personal tabs can be accessed anytime from any device, even offline.
Learn more »
Give kudos to tab author, rate the tab!
1 2 3 4 5
comments
print report bad tab
guest
Wanna post a correction for this tab? Suggest correction