Oops, an error
Loading. Please wait.

Cariñito tab

version 1
version 1

Whole song

452 views 1 this week
no commentswrite comment
1 2 3 4 5
3 more votes to show rating
add to favorites
×
Save as Personal and add changes to this tab that will be seen only by you. Learn more ›
×
You can save this tab as Personal to edit and correct it or add notes. All changes will be seen only by you. Learn more »
launch autoscroll
font size
0
reset
how to read this tab
guitar tuner
edit
Autoscroll
slow
fast
+/-
esc
set tempo
stop
  PM----|            PM--------|
|-----------------------------------3-----------
|----------8-5------------------3-5---5-3-5-3---
|--------------7-5----------------------------5-
|------------------7----------------------------
|------------------------3----3-----------------
|-5--3-5-------------3-5----3-------------------

  PM----|          PM----------|
|------------3------------------
|--------3-5---5-3--------------
|------------------------------- x 2
|-------------------------------
|-3----3-----------3-5-3--------
|----3-------------------5--3-5-

|-12-12-10-8--8-8--8-8--12-12-10-8--8-8--8-8--
|---------------------------------------------
|---------------------------------------------
|---------------------------------------------
|---------------------------------------------
|---------------------------------------------

|-12-12-10-8--8-8--8-8--10-10-8-------------------
|-------------------------------10--10-10--10-10--
|-------------------------------------------------
|-------------------------------------------------
|-------------------------------------------------
|-------------------------------------------------

|--------------------------------------
|-5-5-3-1--1-1--1-1--5-5-3-1--1-1--1-1-
|--------------------------------------
|--------------------------------------
|--------------------------------------
|--------------------------------------

|-----------------------------------------------------
|-5-5-3-1--1-1--1-1--3-3-1----------------3-5-3-5-3-1-
|--------------------------2--2-2--2-2----------------
|-----------------------------------------------------
|-----------------------------------------------------
|-----------------------------------------------------


LA#m      DO#
Lloro por quererte
DO#          FA       LA#m
por amarte y por besarte
lloro por quererte
por amarte y por besarte

FA#    DO#
ay cariño
FA#    DO#
ay mi vida
FA          LA#m
nunca pero nunca
LA#m     DO#      FA LA#m
me abandones cariñito
FA          LA#m
nunca pero nunca
LA#m     DO#      FA LA#m
me abandones cariñito

lloro por quererte
por amarte y por besarte
lloro por quererte
por amarte y por besarte

ay cariño
ay mi vida
nunca pero nunca
me abandones cariñito
nunca pero nunca
me abandones cariñito

Estos son LOS HIJOS DEL SOL
Por tu culpa me llaman aserrín
¿Por qué Ángel Aníbal?
Porque soy lo último que botan de la cantina
¿Por qué te ríes Ángel Aníbal?
No me estoy riendo, estoy llorando, (llorón)

            
            
Suggest correction
Creating personal tab
Creating personal tab
You can edit any tab online and save it as your Personal.

You can edit, replace or remove any tab part or add personal notes – all changes will be seen only by you.

Personal tabs can be accessed anytime from any device, even offline.
Learn more »
Give kudos to tab author, rate the tab!
1 2 3 4 5
comments
print report bad tab
guest
Wanna post a correction for this tab? Suggest correction