Oops, an error
Loading. Please wait.

Cariñito tab

version 2
version 2

Whole song

2,979 views 12 this week
no commentswrite comment
1 2 3 4 5
2 more votes to show rating
add to favorites
×
Save as Personal and add changes to this tab that will be seen only by you. Learn more ›
×
You can save this tab as Personal to edit and correct it or add notes. All changes will be seen only by you. Learn more »
launch autoscroll
font size
0
reset
how to read this tab
guitar tuner
edit
Autoscroll
slow
fast
+/-
esc
set tempo
stop
Gente aqui les traigo otro gran tema
de la cumbia peruana ya se vienen los tutoriales en youtube
cualquier duda Zam C. Zilvestre (facebook)para que pidan mas temas:
 DISFRUTENLO


[Intro]


E|--------------------------------------------------|
B|-------8-5-----------------------5-8-5---5--------|
G|-----------7-5-7-5-------------7-------7----------|
D|-------------------7------------------------------|
A|-------------------------3---3--------------------|
E|-5-0-5---------------3-5---3----------------------|


E|--------------------------------------------------|
B|----------5-8-5---5-----------------8-5-----------|
G|--------7-------7---7-------------------7-5-7-5---|
D|--------------------------------------------------|
A|-3---3----------------3-3p5h3---------------------|
E|---3--------------------------5-0-5---------------|..X2


E|-12-12p15h12/10p12h10/8p10h8-8-8p10h8-8-8p10h8---|
B|-------------------------------------------------|
G|-------------------------------------------------|
D|-------------------------------------------------|
A|-------------------------------------------------|
E|-------------------------------------------------|..X3


E|-8-8p10-8/5---5p8-5p8----------------------------|
B|-------------------------------------------------|
G|-------------------------------------------------|
D|-------------------------------------------------|
A|-------------------------------------------------|
E|-------------------------------------------------|


E|-------------------------------------------------|
B|-------------------------------------------------|
G|-9-9p12h9/7p9h7/5p7h5-5-5p7h5-5-5p7h5------------|
D|-------------------------------------------------|
A|-------------------------------------------------|
E|-------------------------------------------------|..X3


E|-------------------------------------------------|
B|-------------------------------------------------|
G|-5-5p7-5---5---5--------9-7-5p7h5----------------|
D|---------7---7---7----7-----------7--------------|
A|-------------------------------------------------|
E|-------------------------------------------------|


Am            C
Lloro por quererte
              E    Am
por amarte y por besarte

Am            C
lloro por quererte
              E    Am
por amarte y por besarte

E|-------------------------|
B|---------------10-12-13--|
G|-------9-10-12-----------|
D|-10-12-------------------|
A|-------------------------|
E|-------------------------|

--CORO--

   F           C
  Ay....    cariño?.

E|-17-17-17...15-15....------------------|
B|----------------------13-13....--------|
G|---------------------------------------|
D|---------------------------------------|
A|---------------------------------------|
E|---------------------------------------|


  F             C
  Ay....    MI vida

E|-17-17-17...15-15....----------------------|
B|---------------------12p13-13-13-12p13-10--|
G|-------------------------------------------|
D|-------------------------------------------|
A|-------------------------------------------|
E|-------------------------------------------|


  E          Am
  nunca pero nunca

E|-12-12-12-12....---------|
B|-------------------------|
G|-------------------------|
D|-------------------------|
A|-------------------------|
E|-------------------------|

       C            E       Am
me AbanDOooones    caaaaaaariñito

E|---13-13-13.....-12-12....10-10....-------------------|
B|---------------------------------12p13-13-13-12p13-10-|
G|------------------------------------------------------|
D|------------------------------------------------------|
A|------------------------------------------------------|
E|------------------------------------------------------|


  E          Am
  nunca pero nunca

E|-12-12-12-12....---------|
B|-------------------------|
G|-------------------------|
D|-------------------------|
A|-------------------------|
E|-------------------------|

        C           E       Am
me AbanDOooones    caaaaaaariñito

E|---13-13-13.....-12-12....10-10-10-10....----|
B|---------------------------------------------|
G|---------------------------------------------|
D|---------------------------------------------|
A|---------------------------------------------|
E|---------------------------------------------|


intro


E|--------------------------------------------------|
B|-------8-5-----------------------5-8-5---5--------|
G|-----------7-5-7-5-------------7-------7----------|
D|-------------------7------------------------------|
A|-------------------------3---3--------------------|
E|-5-0-5---------------3-5---3----------------------|


E|--------------------------------------------------|
B|----------5-8-5---5-----------------8-5-----------|
G|--------7-------7---7-------------------7-5-7-5---|
D|--------------------------------------------------|
A|-3---3----------------3-3p5h3---------------------|
E|---3--------------------------5-0-5---------------|..X2


E|-12-12p15h12/10p12h10/8p10h8-8-8p10h8-8-8p10h8---|
B|-------------------------------------------------|
G|-------------------------------------------------|
D|-------------------------------------------------|
A|-------------------------------------------------|
E|-------------------------------------------------|..X3


E|-8-8p10-8/5---5p8-5p8----------------------------|
B|-------------------------------------------------|
G|-------------------------------------------------|
D|-------------------------------------------------|
A|-------------------------------------------------|
E|-------------------------------------------------|


E|-------------------------------------------------|
B|-------------------------------------------------|
G|-9-9p12h9/7p9h7/5p7h5-5-5p7h5-5-5p7h5------------|
D|-------------------------------------------------|
A|-------------------------------------------------|
E|-------------------------------------------------|..X3


E|-------------------------------------------------|
B|-------------------------------------------------|
G|-5-5p7-5---5---5--------9-7-5p7h5----------------|
D|---------7---7---7----7-----------7--------------|
A|-------------------------------------------------|
E|-------------------------------------------------|


Am            C
Lloro por quererte
              E    Am
por amarte y por besarte

Am            C
lloro por quererte
              E    Am
por amarte y por besarte

E|-------------------------|
B|---------------10-12-13--|
G|-------9-10-12-----------|
D|-10-12-------------------|
A|-------------------------|
E|-------------------------|

--CORO--

   F           C
  Ay....    cariño?.

E|-17-17-17...15-15....------------------|
B|----------------------13-13....--------|
G|---------------------------------------|
D|---------------------------------------|
A|---------------------------------------|
E|---------------------------------------|


  F             C
  Ay....    MI vida

E|-17-17-17...15-15....----------------------|
B|---------------------12p13-13-13-12p13-10--|
G|-------------------------------------------|
D|-------------------------------------------|
A|-------------------------------------------|
E|-------------------------------------------|


  E          Am
  nunca pero nunca

E|-12-12-12-12....---------|
B|-------------------------|
G|-------------------------|
D|-------------------------|
A|-------------------------|
E|-------------------------|

       C            E       Am
me AbanDOooones    caaaaaaariñito

E|---13-13-13.....-12-12....10-10....-------------------|
B|---------------------------------12p13-13-13-12p13-10-|
G|------------------------------------------------------|
D|------------------------------------------------------|
A|------------------------------------------------------|
E|------------------------------------------------------|


  E          Am
  nunca pero nunca

E|-12-12-12-12....---------|
B|-------------------------|
G|-------------------------|
D|-------------------------|
A|-------------------------|
E|-------------------------|

        C           E       Am
me AbanDOooones    caaaaaaariñito

E|---13-13-13.....-12-12....10-10-10-10....----|
B|---------------------------------------------|
G|---------------------------------------------|
D|---------------------------------------------|
A|---------------------------------------------|
E|---------------------------------------------|


          (INTRO)


 Am           C
lloro por quererte
              E     Am
por amarte y por besarte
 Am           C
lloro por quererte
              E     Am
por amarte y por besarte

 F    C
ay cariño
 F     C
ay mi vida
 E          Am
nunca pero nunca
        C     E Am
me abandones cariñito
E          Am
nunca pero nunca
        C     E Am
me abandones cariñito
Suggest correction
Creating personal tab
Creating personal tab
You can edit any tab online and save it as your Personal.

You can edit, replace or remove any tab part or add personal notes – all changes will be seen only by you.

Personal tabs can be accessed anytime from any device, even offline.
Learn more »
Give kudos to tab author, rate the tab!
1 2 3 4 5
comments
print report bad tab
guest
Wanna post a correction for this tab? Suggest correction