Oops, an error
Loading. Please wait.

Hace Frío Ya chords

version 1
version 1

Whole song

20 views 1 this week
no commentswrite comment
1 2 3 4 5
3 more votes to show rating
add to favorites
×
Save as Personal and add changes to this tab that will be seen only by you. Learn more ›
×
You can save this tab as Personal to edit and correct it or add notes. All changes will be seen only by you. Learn more »
launch autoscroll
font size
0
reset
transpose
0
reset
simplify chords
display chords
guitar tuner
edit
Autoscroll
slow
fast
+/-
esc
set tempo
stop
Strumming
There is no strumming pattern for this song yet. and get +5 IQ
LE PONEMOS EL TRANSPORTE EN EL 1ER TRASTE
ASI SUENA COMO EL DISCO

INTRO
    Am

E||-----------------------|-----------------------||
B||--1----1--1----1--1----|--L--------------------||
G||--2----2--2----2--2----|--L--------------------||
D||--2----2--2----2--2----|--L----------1--0------||
A||--0----0--0----0--0----|--L----0--0------------||
E||-----------------------|-----------------------||


Am                             E
Esta cansado el sol,de tanto y tanto caminar,
      Bm7/5-        Am
se va,se va,se va ,se va,
Am
las sombras de la noche avanzan,
G
lentamente sobre mi,
Dm           G         C
hace frio ya,hace frio ya,

Dm                 Am
bastaria solamente,recibir una caricia,
E                       Am
para darte a ti mi corazon.


          E7
Que es la vida,si no hay cariño,
                                     Am
es como un arbol que sin hojas se quedo,
           A
es como el viento,el frio viento,
         A7add13    A7            Dm
que dejo triste y solitaria a la ciudad,
        E                   Am
y es la vida q es,si faltas tu.

(se repiten los mismos acordes)

Am                     E
Siento mariposa que a la flor no vuela mas,
       Bm7/5-               Am   Am7  Am7 Am6
que no vuela mas,que no vuela mas,
Am                         G
quemada por el fuego de tu inmenso amor,
Dm               G       C
que apagado esta,hace frio ya,

has borrado la sonrrisa,que en mis labios yo tenia,
y tu sabes que no volvera.


que es la vida,si no hay cariño,
es como un arbol que sin hojas se quedo,
es como el viento,el frio viento,
que dejo triste y solitaria a la ciudad,
y esta vida que es,si faltas tu.      Am7add9


ACORDES
     Am   E    Bm7/5- G       Dm   C    E7   A       A7add13- A7

E||--0----0-----------3----|--1----0----0----0----|--1--------0--------|
B||--1----0----3------0----|--3----1----0----2----|--2--------2--------|
G||--2----1----2------0----|--2----0----1----2----|--0--------0--------|
D||--2----2----3------0----|--0----2----0----2----|--2--------2--------|
A||--0----2----2------0----|--0----3----2----0----|--0--------0--------|
E||-------0-----------3----|------------0---------|--------------------|


  Am 2     Am7         Am7      Am6         Am9

--5--------5--------|--5--------5--------|--7----------------||
--5--------5--------|--5--------5--------|--5----------------||
--5--------5--------|--5--------5--------|--5----------------||
--7--------6--------|--5--------4--------|--5----------------||
--7--------7--------|--7-----------------|--7----------------||
--5--------5--------|--5--------5--------|--5----------------||
Suggest correction
Creating personal tab
Creating personal tab
You can edit any tab online and save it as your Personal.

You can edit, replace or remove any tab part or add personal notes – all changes will be seen only by you.

Personal tabs can be accessed anytime from any device, even offline.
Learn more »
Give kudos to tab author, rate the tab!
1 2 3 4 5
comments
print report bad tab
guest
Wanna post a correction for this tab? Suggest correction