Oops, an error
Loading. Please wait.

Correré bass

version 2
version 2

Whole song

68 views 1 this week
no commentswrite comment
1 2 3 4 5
3 more votes to show rating
add to favorites
×
Save as Personal and add changes to this tab that will be seen only by you. Learn more ›
×
You can save this tab as Personal to edit and correct it or add notes. All changes will be seen only by you. Learn more »
launch autoscroll
font size
0
reset
guitar tuner
edit
Autoscroll
slow
fast
+/-
esc
set tempo
stop
Aqui les dejo la tablatura de run (correre) para bajo
espero les sirva.
intro y
eres dios....
e|------------------------------|
b|------------------------------|
g|------------------------------| x2
d|------------------------------|
a|---6(x4)--2(x4)--------4(x4)--|
e|-----------------2(x4)--------|

tu nos viste...
e|-----------------------------------|
b|-----------------------------------|
g|-----------------------------------|
d|-----------------------------------|
a|---2----2----s6-6--4-4--2-2-2-2-2-2|
e|-----------------------------------|

eres dios de victoria... (repite la misma secuencia de arriba)

coro:
y correre...
e|------------------------------------------------------|
b|------------------------------------------------------|
g|------------------------------------------------------|
d|------------------------------------------------------|
a|--------4(x8)--6(x8)--2(x8)---------------6(x8)--2(x8)|
e|--2(x8)----------------------2(x8)--4(x8)-------------|

espacio musical luego de: jesus!
e|------------------------------|
b|------------------------------|
g|------------------------------| x2
d|------------------------------|
a|---6(x4)--2(x4)--------4(x4)--|
e|-----------------2(x4)--------|

eres dios somos libres...
e|------------------------------|
b|------------------------------|
g|------------------------------| x2
d|------------------------------|
a|---6(x4)--2(x4)--------4(x4)--|
e|-----------------2(x4)--------|

tu nos viste...
e|-----------------------------------|
b|-----------------------------------|
g|-----------------------------------|
d|-----------------------------------|
a|---2----2----s6-6--4-4--2-2-2-2-2-2|
e|-----------------------------------|

coro 2:
y correre arde...
e|------------------------------------------------------|
b|------------------------------------------------------|
g|------------------------------------------------------|
d|------------------------------------------------------|
a|--------4(x8)--6(x8)--2(x8)---------------6(x8)--2(x8)|
e|--2(x8)----------------------2(x8)--4(x8)-------------|

y correre con mi vida....
e|----------------------------------------------------------------|
b|----------------------------------------------------------------|
g|----------------------------------------------------------------|
d|----------------------------------------------------------------|
a|--------4(x8)--6(x8)--2(x8)---6(x8)--4(x8)--1(x8)--2(x4)--s4(x4)|
e|--2(x8)---------------------------------------------------------|

jesus!
e|------------------------------|
b|------------------------------|
g|------------------------------| x4
d|------------------------------|
a|---6(x4)--2(x4)--------4(x4)--|
e|-----------------2(x4)--------|

ooohooo!!( quedas en a|-2-|)
gloria al señor...
e|-----------------------|
b|-----------------------|
g|-----------------------| x4
d|-----------------------|
a|--s6(x8)-------s2(x8)--|
e|-----------------------|

coro 2:
y correre... ( misma secuencia del coro 2 de arriba)

final:
e|-------------------------------|
b|-------------------------------|
g|-------------------------------| x4
d|-------------------------------|
a|---6(x4)--2(x4)--------4(x4)---|
e|-----------------2(x4)---------|

y te vuelves a: a|-2-| disminuyendo velocidad en la ultima pasada

espero que les haya servido, bendiciones

            
            
Suggest correction
Creating personal tab
Creating personal tab
You can edit any tab online and save it as your Personal.

You can edit, replace or remove any tab part or add personal notes – all changes will be seen only by you.

Personal tabs can be accessed anytime from any device, even offline.
Learn more »
Give kudos to tab author, rate the tab!
1 2 3 4 5
comments
print report bad tab
guest
Wanna post a correction for this tab? Suggest correction