Oops, an error
Loading. Please wait.

Creo En Tí tab

155 views 1 this week
no commentswrite comment
1 2 3 4 5
3 more votes to show rating
add to favorites
×
Save as Personal and add changes to this tab that will be seen only by you. Learn more ›
×
You can save this tab as Personal to edit and correct it or add notes. All changes will be seen only by you. Learn more »
launch autoscroll
font size
0
reset
how to read this tab
guitar tuner
edit
Autoscroll
slow
fast
+/-
esc
set tempo
stop
Bendiciones, esta canción esta en tonalidad de Sol mayor (G) y es para
guitarra eléctrica, lo que quiere decir que lo acordes son todos en 5ta...

Intro: x4

| Em | D | C | D |

         Em        D
E:-----x-------x------x-------x-------x--------------:
A:-----7-------x------x-------x-------x--------------:
D:-----x-------9------9-------9-------9--------------:
G:-----7-------7------7-------7-------7--------------:
B:-----8------10-----10------10------10--------------:
e:-----x-------x------x-------x-------x--------------:
         C       D
E:-----x-------x-----x------x-----x-------------------:
A:-----x-------7-----7------7-----7-------------------:
D:-----7-------7-----7------7-----7-------------------:
G:-----5-------x-----x------x-----x-------------------:
B:-----8------10----10-----10----10-------------------:
e:-----x-------x-----x------x-----x-------------------:

Verso: x4

| Em | D | C | D |

        Em        D
E:-----x-------x------x-------x-------x-------------:
A:-----7-------x------x-------x-------x-------------:
D:-----x-------9------9-------9-------9-------------:
G:-----7-------7------7-------7-------7-------------:
B:-----8------10-----10------10------10-------------:
e:-----x-------x------x-------x-------x-------------:
         C       D
E:-----x-------x-----x------x-----x-------------------:
A:-----x-------7-----7------7-----7-------------------:
D:-----7-------7-----7------7-----7-------------------:
G:-----5-------x-----x------x-----x-------------------:
B:-----8------10----10-----10----10-------------------:
e:-----x-------x-----x------x-----x-------------------:


Coro: x1

| G | D | Em D | C |
| G | D | Am  Bm | C |

Interludio:

| F# | G | x4 (nota: acá hacen un slash desde F# a G 4 veces)

Verso: x4

| Em | D | C | D |

        Em        D
E:-----x-------x------x-------x-------x-------------:
A:-----7-------x------x-------x-------x-------------:
D:-----x-------9------9-------9-------9-------------:
G:-----7-------7------7-------7-------7-------------:
B:-----8------10-----10------10------10-------------:
e:-----x-------x------x-------x-------x-------------:
         C       D
E:-----x-------x-----x------x-----x-------------------:
A:-----x-------7-----7------7-----7-------------------:
D:-----7-------7-----7------7-----7-------------------:
G:-----5-------x-----x------x-----x-------------------:
B:-----8------10----10-----10----10-------------------:
e:-----x-------x-----x------x-----x-------------------:

Coro: x2

| G | D | Em D | C |
| G | D | Am  Bm | C |


Solo: x2
(nota: el bajo es el que hace el solo, la guitarra hace los
acordes solo con 8vas)

| Em | C D | (G)

Puente: x4 (y mas x4)

|| G || C ||

(Esto cuando la canción sube la intensidad, x4)
            G
E:----------------------------------------:
A:-10--10--10--10--9--9--9--9--12--12-----:
D:----------------------------------------:
G:-12--12--12--12--11-11-11-11-14-14------:
B:----------------------------------------:
e:----------------------------------------:
    C                         G
E:-------------------------------------:
A:-12--12--10--10--10--10--------------:
D:------------------------10-10-10-10--:
G:-14--14--12--12--12--12--------------:
B:------------------------13-13-13-13--:
e:-------------------------------------:
              C
E:------------------------------------------:
A:------------------------------------------:
D:-9--9--9--9--12-12-12-12--10--10--10--10--:
G:------------------------------------------:
B:-12-12-12-12-15-15-15-15--13--13--13--13--:
e:------------------------------------------:

Coro: x2

| G | D | Em D | C |
| G | D | Am  Bm | C |

Final: x2
(Acordes solo en 8vas)

| Em | C D | (G)
       Em
E:-------------------------------------:
A:-------------------------------------:
D:-------------------------------------:
G:-12-12-12-12-11-11-11-11-12-12-12----:
B:-------------------------------------:
e:-------------------------------------:
                C
E:-----------------------------------------------:
A:-----------------------------------------------:
D:-----------------------------------------------:
G:-12-11-11-11-11-12-12-12-12--------------------:
B:----------------------------13-13-13-13-12-12--:
e:-----------------------------------------------:
       D                                      (G)
E:--------------------------------------------------:
A:--------------------------------------------------:
D:--------------------------------------------------:
G:--------------------------------------------(12)--:
B:-12-12-13-13-13-13-12-12-12-112-13-13-13-13-------:
e:--------------------------------------------------:


Como siempre espero que esta adoración sea de grandes bendiciones
para su iglesia, bendiciones xD
Suggest correction
Creating personal tab
Creating personal tab
You can edit any tab online and save it as your Personal.

You can edit, replace or remove any tab part or add personal notes – all changes will be seen only by you.

Personal tabs can be accessed anytime from any device, even offline.
Learn more »
Give kudos to tab author, rate the tab!
1 2 3 4 5
comments
print report bad tab
guest
Wanna post a correction for this tab? Suggest correction