Oops, an error
Loading. Please wait.

Introducción tab

version 2
version 2

Whole song

35 views 1 this week
no commentswrite comment
1 2 3 4 5
3 more votes to show rating
add to favorites
×
Save as Personal and add changes to this tab that will be seen only by you. Learn more ›
×
You can save this tab as Personal to edit and correct it or add notes. All changes will be seen only by you. Learn more »
launch autoscroll
font size
0
reset
how to read this tab
guitar tuner
edit
Autoscroll
slow
fast
+/-
esc
set tempo
stop
Practiquen el picking y escuchen muy bien la cancion, aqui les dejo las
cuerdas que van a tocar mas no la veces del picking, esto es solo para
que se guien!


1ra GUITARRA:
El efecto es un delay, escuchen bien la cancion para agarrar el tiempo!

1ra parte:

E||--------------7-9-------7-9------------------------------|
B||--10-10-10-10-----9-9-9-----7-7-7-10-10-9-9-6-6-6-6-6----| x2
G||---------------------------------------------------------|

2da parte: Esta parte toquenla 1ro sin la cancion para que se aprendan
la melodia, luego pongan la cancion a todo volumen para que puedan
escuchar y agarrar el tiempo!

E||--------10-10-9-9-7-7-10-10-------10-10-9-9-7-7-10-10----|
B||--7-7-7---------------------6-6-6------------------------|
G||---------------------------------------------------------|


E||--------10-10-9-9-7-7-10-10-------10-10-9-9-7-7-10-10----|
B||--7-7-7---------------------9-9-9------------------------|
G||---------------------------------------------------------|

3ra parte: Al final de esta parte sen quedan en "B-10"

E||--------------------------------9-10-10-10-12-12-12--------|
B||--12-12-12-14-14-14-10-10-10-12---------------------10-12--|
G||-----------------------------------------------------------|

E||--10-10-10-12-12-12-9-9-9-------10-10-10-12-12-12----------|
B||--------------------------10-12-------------------10-10-10-|
G||-----------------------------------------------------------|


2da GUITARRA:
El efecto sigue siendo delay pero con una distorsion un poco fuerte,
solo un poco! El pick debe ser un poco mas lento que el de la 1ra
guitarra!

1ra parte: Esto entra despues de una vuelta de la 1ra parte de la
guitarra 1..!

E||---------------------------------------------------------|
B||--7-7-7-7-7--5-5-5-5-5--7-7-7-7-7-7--5-5-5-5-5-----------|
G||---------------------------------------------------------|

2da parte:

E||---------------------------------------------------------|
B||--3-3-3-3s5-5-5-5s2-2-2-2-3-3-3-3s5-5-5-5-5--------------| x2
G||---------------------------------------------------------|

3ra parte:

E||---------------------------------------------------------|
B||--12-12-12-14-14-14-10-10-10s9-9-9s----------------------| x4
G||---------------------------------------------------------|


3ra GUITARRA:
Son los acordes de fondo, el efecto es solo distorsion no muy fuerte!
Esta entra al mismo tiempo que la 2da guitarra!

1ra parte:

      F#m       E        D        E
E| |--------|--------|--------|--------|
B| |--------|--------|--------|--------|
G| |-----11-|-----9--|-----7--|-----9--|
D|X|--------|--------|--------|--------|
A| |--9-----|--7-----|--5-----|--7-----|
E|X|--------|--------|--------|--------|

2da parte:

       D        E deslizar C#      D        E
E| |--------|--------|--------|--------|--------|
B| |--------|--------|--------|--------|--------|
G| |-----7--|-----9--|-----6--|-----7--|-----9--|  x2
D|X|--------|--------|--------|--------|--------|
A| |--5-----|--7-----|--4-----|--5-----|--7-----|
E|X|--------|--------|--------|--------|--------|

3ra parte:

      F#m       A       Bm        A       Bm        A
E| |--------|--------|--------|--------|--------|--------|
B| |--------|--------|--------|--------|--------|--------|
G| |-----11-|--6-----|-----4--|--6-----|-----4--|--6-----|
D| |--------|-----7--|--------|-----7--|--------|-----7--|
A| |--9-----|-----7--|--2-----|-----7--|--2-----|-----7--|
E|X|--------|--------|--------|--------|--------|--------|

        D       E        D
E| |--------|--------|--------|
B| |--------|--------|--------|
G| |-----7--|-----9--|-----7--|
D|X|--------|--------|--------|
A| |--5-----|--7-----|--5-----|
E|X|--------|--------|--------|

Para mi esto es lo mas cercano que he podido sacar de la original, no se
si estos seran los vedaderos acordes y el picking original..!
Espero que les sirva de algo!

Cualquier correcion este es mi correo david_david13@
DIOS LES BENDIGA

Saludos a todos los miembros de la Iglesia "Roca FUerte"
QUE VIVA VENEZUELA!!!!!!!
Suggest correction
Creating personal tab
Creating personal tab
You can edit any tab online and save it as your Personal.

You can edit, replace or remove any tab part or add personal notes – all changes will be seen only by you.

Personal tabs can be accessed anytime from any device, even offline.
Learn more »
Give kudos to tab author, rate the tab!
1 2 3 4 5
comments
print report bad tab
guest
Wanna post a correction for this tab? Suggest correction