Oops, an error
Loading. Please wait.

La Revolución bass

version 1
version 1

Whole song

46 views 1 this week
no commentswrite comment
1 2 3 4 5
3 more votes to show rating
add to favorites
×
Save as Personal and add changes to this tab that will be seen only by you. Learn more ›
×
You can save this tab as Personal to edit and correct it or add notes. All changes will be seen only by you. Learn more »
launch autoscroll
font size
0
reset
guitar tuner
edit
Autoscroll
slow
fast
+/-
esc
set tempo
stop
Hola a todos, esta es mi primera colaboracion y tambien es la
primera cancion que saco a oido, asi que disculpen los errores,
califiquenmela por favor y espero que este bien.
Nota: Lo que esta entre parentesis son las veces que se toca
la nota.

INTRO
E|----------------------------
A|--6(14)---------4(4)-5(4)---
D|-------3(2)-4(8)------------
G|----------------------------

VERSO 1
E|-----------------------------------------------
A|--6(4)---------------6(4)----------------------  X 2
D|-----------8(4)-9(4)-----------8(4)-9(4)---999~
G|------8(4)----------------8(4)-----------------

PRE-CORO
E|--4(4)------7(8)--
A|-------6(4)-------
D|------------------
G|------------------

CORO
E|--2-2---2--2--4-4---4--4--2-2---2--2---
A|------22-22-------66-66-------22-22----
D|---------------------------------------
G|-------------------------------------1~

INTRO
VERSO 2 (se toca igual que el 1)
PRE-CORO
CORO X 2
INTRO X 2

PUENTE 1
E|------------------------2-22-2-22-2-
A|-----2222--------2222---------------
D|--1-1----1-1--1-1----1-1----4----4--
G|------------------------------------

PUENTE 2
E|-----------------------------------------------4(8)------
A|------2(8)-1(8)-4(4)---------2(8)-1(8)-4(4)--------2(8)--
D|--1(8)--------------0(4)-1(8)--------------0(4)----------
G|---------------------------------------------------------

CORO X 2

FIN
E|--2-2---2--2--4-4---4--4--2-2--2--2--4-4-4-4------------
A|------22-22-------66-66------22-22-----------(2)--------  X 2
D|---------------------------------------------(1-1-1-1)--
G|--------------------------------------------------------
NOTA: El final se repite 2 veces, solo que se cambian las
ultimas partes que estan entre parentesis, la primera vez
se toca D# y la segunda se toca B.

Saludos a todas las Iglesias de Dios en Mexico y en
 les Bendiga a todos y agregenme al
msn para que me den unas clasecitas, soy principiante.
-=Carlos Alberto=-

            
            
Suggest correction
Creating personal tab
Creating personal tab
You can edit any tab online and save it as your Personal.

You can edit, replace or remove any tab part or add personal notes – all changes will be seen only by you.

Personal tabs can be accessed anytime from any device, even offline.
Learn more »
Give kudos to tab author, rate the tab!
1 2 3 4 5
comments
print report bad tab
guest
Wanna post a correction for this tab? Suggest correction