Oops, an error
Loading. Please wait.

Nunca Fallarás tab

version 1
version 1

Whole song

46 views 1 this week
no commentswrite comment
1 2 3 4 5
3 more votes to show rating
add to favorites
×
Save as Personal and add changes to this tab that will be seen only by you. Learn more ›
×
You can save this tab as Personal to edit and correct it or add notes. All changes will be seen only by you. Learn more »
launch autoscroll
font size
0
reset
how to read this tab
guitar tuner
edit
Autoscroll
slow
fast
+/-
esc
set tempo
stop
Nunca fallará
Matt Crocker (compositor)
Album: En mi lugar

Guitarra I
(1°forma)
    C            Am       F
e|-------------------8-------------------|
B|---------------------------------------|
G|-------9---------9-----------10-9------|
D|----10---------7----------10-----------|
A|------------------------8--------------|
E|--8------------------------------------|
 (2°forma)
e|---------------------------------------|
B|---------8p5---------------------------|
G|---5-7p5-----7p5----(repetitivamente)--|
D|---------------------------------------|
A|---------------------------------------|
E|---------------------------------------|


Introducción/ (verso)
Guitarra I (1°forma)
    C            Am       F
e|-------------------8-------------------|
B|---------------------------------------|
G|-------9---------9-----------10-9------|
D|----10---------7----------10-----------|
A|------------------------8--------------|
E|--8------------------------------------|(x4)
Guitarra II (rítmica) un solo rasgueo suave en cada nota

Versos
Guitarra I sigue con la (1°forma)
Guitarra II hace lo siguiente: (slide)
    C            Am       F     (C)
e|----12------------8-s-----3-s---(12)---|
B|---------------------------------------|


Verso I

C                      Am       F
 Todo ser alzará hacia ti su mirada
C                        Am         F     C
 Late mi corazón con la sangre que vida da
       Am      F     C     Am   F
Tu amor nunca fallará


Verso II

C                           Am        F
 Ya no hay muro que de tu amor nos separe
C                           Am        F       C
 Siendo rey se vistió como siervo en mi lugar
      Am        F     C      Am   F
Mi Dios nunca fallará


Verso III

C                           Am       F
 Volverá hacia ti el que estuvo perdido
C                             Am         F        C
 Y podrá descubrir que el perdón brilla en la cruz

Guitarra I (2°forma)
       Am      F      C
Y caerá ante ti Jesús
         Am      F     C     Am   F
la pasión mora en tu luz

C     Am   F


Verso IV

Guitarra I (1°forma)
C                           Am         F
 Sonará la canción que destruye el silencio
C                             Am      F    C
 Un clamor celestial con los ángeles alzaré
Guitarra I (2°forma)
      Am         F    C
Por siempre te alabaré
      Am         F
Por siempre y siempre


Coro I

Guitarra I
e|-8-10-10--10-8-8--8-----------|
B|-8-8--8---8--8-10-8(x3)-------|
G|------------------------------|
D|------------------------------|

e|-8-10-10--10-8-10s12-12-------|
B|-8-8--8---8--8----------------|
G|------------------------------|
D|------------------------------|

Guitarra II (rasgueo)
   C   G   Am  F    C   G   Am  F
e|---------------------------------------|
B|-13--12--13--13---13--15--13--13-------|
G|-12--12--12--10---12--12--12--10-------|
D|---------------------------------------|
A|---------------------------------------|
E|---------------------------------------|

C                   G
 Creeré, amaré, caeré en tu presencia
Am                       F             C
 Correré, cantaré, viviré para proclamar
     G                 Am
Por siempre voy a alabar
     F                   C      Am   F
Tu nombre yo voy a exaltar

C     Am   F

Intermedio
Guitarra II
    C            Am       F     (C)
e|----12------------8-s-----3-s---(12)---|
B|---------------------------------------|x2


Verso V

Guitarra I (1°forma)
C                               Am        F
 El universo a tus pies las estrellas se rinden
C                         Am     F   C
 Eres Dios, eres rey todo ídolo caerá
Guitarra I (2°forma)
       Am        F     C
Pero Dios nunca fallará
      Am        F
Por siempre y siempre


Coro II

 C                   G
 Creeré, amaré, caeré en tu presencia
Am                       F             C
 Correré, cantaré, viviré para proclamar
     G                 Am
Por siempre voy a alabar
 F
Cristo, Cristo


C                   G
 Creeré, amaré, caeré en tu presencia
Am                       F             C
 Correré, cantaré, viviré para proclamar
     G                 Am
Por siempre voy a alabar
     F                   C      Am   F
Tu nombre yo voy a exaltar

C     Am   F


Puente

Guitarra I (2°forma)
Guitarra II primero rasguea con palm mute
despues rasguea normal
    C   G  C/E  F   Am   G  C/E*  F
e|---------------------------------------|
B|---------------------------------------|
G|------12------10--13--12--9----10------|
D|--10--12--10--10--13--12--10---10------|
A|--10--10--10--8---12--10--7----8-------|
E|--8-------12---------------------------|

Palm mute
C               G
 Cielos y tierra a tu voz tiemblan
C/E             F                      Am
 Un clamor suena, por tu gloria cantará
    G              C/E    F
Mi Dios nunca fallará

Normal
C                  G
 La creación clama, su voz levanta
C/E               F                     Am
 Tu nombre exalta, por tu gloria cantará
     G              C/E    F
 Mi Dios nunca fallará


Coro III

Creeré, amaré, caeré en tu presencia
Correré, cantaré, viviré para proclamar
Por siempre voy a alabar

(Los mismos acordes del puente)

Cielos y tierra a tu voz tiemblan
Un clamor suena, por tu gloria cantará
Mi Dios nunca fallará
Cristo, Cristo

La creación clama, su voz levanta
Tu nombre exalta, por tu gloria cantará
Mi Dios nunca fallará
Tu nombre yo voy a exaltar

Bueno amigos, eso es todo
disfrutenlo, Dios los Bendiga a todos
saludos desde la iglesia "Casa del Rey" en Barranquilla/Colombia
efra919@

            
            
Suggest correction
Creating personal tab
Creating personal tab
You can edit any tab online and save it as your Personal.

You can edit, replace or remove any tab part or add personal notes – all changes will be seen only by you.

Personal tabs can be accessed anytime from any device, even offline.
Learn more »
Give kudos to tab author, rate the tab!
1 2 3 4 5
comments
print report bad tab
guest
Wanna post a correction for this tab? Suggest correction