Oops, an error
Loading. Please wait.

Por Mi Murió tab

117 views 1 this week
no commentswrite comment
1 2 3 4 5
3 more votes to show rating
add to favorites
×
Save as Personal and add changes to this tab that will be seen only by you. Learn more ›
×
You can save this tab as Personal to edit and correct it or add notes. All changes will be seen only by you. Learn more »
launch autoscroll
font size
0
reset
how to read this tab
guitar tuner
edit
Autoscroll
slow
fast
+/-
esc
set tempo
stop
Saludos... Esta traducción es de autorizada de la web de 
Con este link podran conocer los pasos para descargar las traducciones
gratis 

POR MI MURIÒ es la traducción original del titulo de la canción

INTRO:

E||------------------------------------------------|
B||--------12-10-----12-10-----12-10---10----------|
G||-----11-------12--------11---------------9------| x2
D||--12------------------------------11--12--------|
A||------------------------------------------------|
E||------------------------------------------------|

Versos:
(Van a usar el INTRO pero ponganle
atencion para agarrarle el tiempo)

Verso 1
La sangre de Jesús me redimió
Me perdonó y libertad me dio
Tu majestad está dentro de mí
Por siempre creo en ti, por siempre creo en ti

Verso 2
Me inundas con justicia y amor
Tu gracia cautivó mi corazón
Tu espíritu me guía a la verdad
                                  G    G G G G G...
Tu amor no fallará, tu amor no fallará

CORO:

E||------5-5-----5-5---------------------------------|
B||----------------------5-5-----5-------------------|
G||----7--7----7--7----7--7----7--7------------------|
D||--7---------------4-------5-----------------------|
A||----------7---------------------------------------|
E||--------------------------------------------------|

Despues de tocarlo 4 veces es cuando entran todos los
instrumentos... (La 1ra guitarra igual sigue haceiendo
los arpegios anteriores)

D              A
Por amor Dios dio
Bm            G
Su hijo único Jesús
D         A
Por mí murió
Bm                   G
Me dio esperanza y salvación
D        A
En mi lugar
Bm                   G
Su vida entregó en la cruz
D           A
Me amó, me amó
Bm            G
Aun sin merecerlo

SOLO:
(D A Bm G)

E||-------10----10----9----10----------10--------------|
B||--7s10----10----10---10----10--7-10----7--8---10----|
G||--------------------------------------------7----7--|
D||----------------------------------------------------|
A||----------------------------------------------------|
E||----------------------------------------------------|

E||-------------9---10------12----14-------15----17----|
B||--------7-----------8s10----10----10s12----12-------|
G||--7-7h9---7s9--9------------------------------------|
D||----------------------------------------------------|
A||----------------------------------------------------|
E||----------------------------------------------------|

E||-----------14---------------------10-------10-------|
B||--15-15h17----17-14----15-------10--10---10--10-----|
G||--------------------14----14--11-------12-----------|
D||----------------------------------------------------|
A||----------------------------------------------------|
E||----------------------------------------------------|

E||-----------14----------------0----------------------|
B||---------------14--15----7-------8--7---------------|
G||--11-12s14---14--14--14----7---7--------------------|
D||----------------------------------------------------|
A||----------------------------------------------------|
E||----------------------------------------------------|

VERSO 2:
(Esta parte aganla con unas improvisaciones)

            G              D
Me inundas con justicia y amor
            A             Bm
Tu gracia cautivó mi corazón
            G              D
Tu espíritu me guía a la verdad
                A                   G G G G G..
Tu amor no fallará, tu amor no fallará


Coro:
(Se toca como la 1ra vez)


Bueno con mucha practica les va a quedar calidad...
DIOS LES BENDIGA
Heeey esta es mi primera transcripción, espero que les sirva!
Cualquier correcion este es mi correo david_david13@

Saludos a todos los miembros de la Iglesia "Roca FUerte"
VIVA VENEZUELA!!!!!!!

            
            
Suggest correction
Creating personal tab
Creating personal tab
You can edit any tab online and save it as your Personal.

You can edit, replace or remove any tab part or add personal notes – all changes will be seen only by you.

Personal tabs can be accessed anytime from any device, even offline.
Learn more »
Give kudos to tab author, rate the tab!
1 2 3 4 5
comments
print report bad tab
guest
Wanna post a correction for this tab? Suggest correction