Oops, an error
Loading. Please wait.

Por Tí tab

version 2
version 2

Whole song

46 views 1 this week
no commentswrite comment
1 2 3 4 5
3 more votes to show rating
add to favorites
×
Save as Personal and add changes to this tab that will be seen only by you. Learn more ›
×
You can save this tab as Personal to edit and correct it or add notes. All changes will be seen only by you. Learn more »
launch autoscroll
font size
0
reset
how to read this tab
guitar tuner
edit
Autoscroll
slow
fast
+/-
esc
set tempo
stop
Se reordeno tal como esta el tema original, se diferenciaron
las guitarras y se añadieron detalles a las TABS y otras
sugerencias (detalles)

Intro Y Versos: B5 (Toda la cancion usa Quintas)

Guitarra2 en Intro/Coro: Slide hasta B12 y mantener luego G4
Guitarra1 en Intro/Coro: G4 mantener y luego slide hasta B12

e|-----------------------------------------
B|-1s12-12-12-12-12-12-12-12-12-12-12------x3
G|-----------------------------------------

CORO x 2 (Guit2)
B
Todo lo doy por Ti, por Ti
         E       G#m   E
Quiero seguirte solo a Ti

(entra guitarra 1 con bastante Delay y distorsion tocando
las siguientes cuerdas: G4 y e7 las demas muteadas)

VERSO 1
B
En el Padre somos libres
B
La Esperanza se encuentra en Su Nombre
B
Entregamos nuestras vidas
B
En Su Amor viviremos por siempre

Guit1
e|-14--11-----14--11---------------------
B|---14--12-----14--12--12-14----------x3
G|---------11---------11-----------------

PRE-CORO (Guit2)
E           G#m
En Ti la vida está
B
Encuentro libertad
    E      G#m    F#
Mi vida no será igual

CORO x 2 (full ambas guit)
B
Todo lo doy por ti, por ti
          E     G#m    E
Quiero seguirte solo a ti//... Cantaremos

Guit2
G|-------------1-----------------
D|---------------2-2-2-2-2s4-4-4-
A|-2-2-2-2-2--2------------------x2
E|----------4--------------------

Guit1
e|-----------------------------------------
B|-1s12-12-12-12-12-12-12-12-12-12-12--------x3
G|-----------------------------------------

VERSO 2
B
Con mi vida hoy Te sirvo
B
Todo lo que yo soy
B
A Ti rindo
B
Mis deseos quiero darte
B
Y por siempre poder reflejarte

Guit1
e|-14--11-----14--11---------------------
B|---14--12-----14--12--12-14s----------x3
G|---------11---------11-----------------

PRE-CORO (Guit2)
E           G#m
En Ti la vida está
B
Encuentro libertad
    E      G#m    F#
Mi vida no será igual

CORO x 2 (full ambas guit)
B
Todo lo doy por ti, por ti
          E     G#m    E
Quiero seguirte solo a ti//... Cantaremos

Guit2
G|-------------1-----------------
D|---------------2-2-2-2-2s4-4-4-
A|-2-2-2-2-2--2------------------x6
E|----------4--------------------

Guit1
e|-14--11-----14--11---------------------
B|---14--12-----14--12--12-14s----------x3
G|---------11---------11-----------------

PUENTE
C#m          B             F#
 Abriste mis ojos, puedo ver
F#
La venda quitaste
C#m        B              F#
 Me diste Tu Vida y Tu Verdad
C#m        B           F#
Tu fama queremos proclamar
                E
En Ti somos libres
E
En Ti somos libres

CORO x2 (full)
B
Todo lo doy por ti, por ti
          E     G#m    E
Quiero seguirte solo a ti//... Cantaremos

Guit2
G|-------------1-----------------
D|---------------2-2-2-2-2s4-4-4-
A|-2-2-2-2-2--2------------------x2
E|----------4--------------------

FIN: B
FIN: B

Saludos desde Venezuela, Ministerio de Alabanza LBN48, cualquier
duda o sugerencia escribir a rubenmorac@ espero sea de
bendicion, este es un gran tema y vale al pena tocarlo bien
detallado y dedicarselo al Rey de Reyes.. Bendiciones

            
            
Suggest correction
Creating personal tab
Creating personal tab
You can edit any tab online and save it as your Personal.

You can edit, replace or remove any tab part or add personal notes – all changes will be seen only by you.

Personal tabs can be accessed anytime from any device, even offline.
Learn more »
Give kudos to tab author, rate the tab!
1 2 3 4 5
comments
print report bad tab
guest
Wanna post a correction for this tab? Suggest correction