Oops, an error
Loading. Please wait.

Solución tab

20 views 3 this week
no commentswrite comment
1 2 3 4 5
3 more votes to show rating
add to favorites
×
Save as Personal and add changes to this tab that will be seen only by you. Learn more ›
×
You can save this tab as Personal to edit and correct it or add notes. All changes will be seen only by you. Learn more »
launch autoscroll
font size
0
reset
how to read this tab
guitar tuner
edit
Autoscroll
slow
fast
+/-
esc
set tempo
stop
Hola chavos esta es la vercion en vivo (live.
espero y tengan un buen distor, usen el wah y el delay
Dios les bendiga.


Verse 1
e--------------------------------------
B--------------------------------------
G--------------------------------------
D-------12-12-12-11-12-------9-9-9-7-5-
A-7-7-7----------------7-7-7-----------
E--------------------------------------

e--------------------------------------
B--------------------------------------
G--------------------------------------
D-------12-12-12-11-12-------9-9-9-7-5-
A-9-9-9----------------9-9-9-----------
E--------------------------------------

e--------------------------------------
B--------------------------------------
G--------------------------------------
D-------12-12-12-11-12-------9-9-9-7-5-
A-7-7-7----------------7-7-7-----------
E--------------------------------------

e-----------------------------------------
B-----------------------------------------
G-----------------------------------------
D-------12-12-12-11-12-------11-11-11-9-7-
A-9-9-9----------------9-9-9--------------
E-----------------------------------------

Pre-Chorus
e---------12--12-12-12---------12--12-12-12-***
B-10-9-10--------------10-9-10--------------
G-------------------------------------------
D-------------------------------------------
A-------------------------------------------
E-------------------------------------------

e---------12--12-12-12-11-11-10-10-------------***
B-10-9-10--------------------------12-12-10-10-
G----------------------------------------------
D----------------------------------------------
A----------------------------------------------
E----------------------------------------------

e---------12--12-12-12---------12--12-12-12-***
B-10-9-10--------------10-9-10--------------
G-------------------------------------------
D-------------------------------------------
A-------------------------------------------
E-------------------------------------------

e---------12--12-12-12-11-11-10-10-------------***
B-10-9-10--------------------------12-12-10-10-
G----------------------------------------------
D----------------------------------------------
A----------------------------------------------
E----------------------------------------------

Verse 2
e--------------------------------------
B--------------------------------------
G--------------------------------------
D-------12-12-12-11-12-------9-9-9-7-5-
A-9-7-9----------------7-7-7-----------
E--------------------------------------

e--------------------------------------
B--------------------------------------
G--------------------------------------
D-------12-12-12-11-12-------9-9-9-7-5-
A-9-7-9----------------7-7-7-----------
E--------------------------------------

e-----------------------------
B-----------------------------
G-----------------------------
D-7-7-7-7-7-7-7-2-2-2-2-2-2-2-
A-x-x-x-x-x-x-x-x-x-x-x-x-x-x-
E-5-5-5-5-5-5-5-0-0-0-0-0-0-0-

e-----------------------------
B-----------------------------
G-7-7-7-7-7-7-7-7-7-7-7-7-7-7-
D-x-x-x-x-x-x-x-x-x-x-x-x-x-x-
A-5-5-5-5-5-5-5-5-5-5-5-5-5-5-
E-----------------------------

e-----------------------------
B-----------------------------
G-----------------------------
D-7-7-7-7-7-7-7-2-2-2-2-2-2-2-
A-x-x-x-x-x-x-x-x-x-x-x-x-x-x-
E-5-5-5-5-5-5-5-0-0-0-0-0-0-0-

e-----------------------------
B-----------------------------
G-7-7-7-7-7-7-7-7-7-7-7-7-7-7-
D-x-x-x-x-x-x-x-x-x-x-x-x-x-x-
A-5-5-5-5-5-5-5-5-5-5-5-5-5-5-
E-----------------------------

Pre-Chorus
e---------12--12-12-12---------12--12-12-12-***
B-10-9-10--------------10-9-10--------------
G-------------------------------------------
D-------------------------------------------
A-------------------------------------------
E-------------------------------------------

e---------12--12-12-12-11-11-10-10-------------***
B-10-9-10--------------------------12-12-10-10-
G----------------------------------------------
D----------------------------------------------
A----------------------------------------------
E----------------------------------------------

e---------12--12-12-12---------12--12-12-12-***
B-10-9-10--------------10-9-10--------------
G-------------------------------------------
D-------------------------------------------
A-------------------------------------------
E-------------------------------------------

e---------12--12-12-12-11-11-10-10-------------***
B-10-9-10--------------------------12-12-10-10-
G----------------------------------------------
D----------------------------------------------
A----------------------------------------------
E----------------------------------------------

Chorus: D A E Bm

Un saludo a la banda la nueva Jerusalén en jalapa
del marques oaxaca, un beso a mi chapis,comentario
duda, o solo amistad a mi msn: m170890@

            
            
Suggest correction
Creating personal tab
Creating personal tab
You can edit any tab online and save it as your Personal.

You can edit, replace or remove any tab part or add personal notes – all changes will be seen only by you.

Personal tabs can be accessed anytime from any device, even offline.
Learn more »
Give kudos to tab author, rate the tab!
1 2 3 4 5
comments
print report bad tab
guest
Wanna post a correction for this tab? Suggest correction