Oops, an error
Loading. Please wait.

Soy Como Tú tab

22 views 1 this week
no commentswrite comment
1 2 3 4 5
3 more votes to show rating
add to favorites
×
Save as Personal and add changes to this tab that will be seen only by you. Learn more ›
×
You can save this tab as Personal to edit and correct it or add notes. All changes will be seen only by you. Learn more »
launch autoscroll
font size
0
reset
how to read this tab
guitar tuner
edit
Autoscroll
slow
fast
+/-
esc
set tempo
stop
Soy Como Tu
Hombres G

Acotaciones:
***El Riff 1 lo puedes hacer acompañando al E tu mismo y haciendo
arreglos, para que quede así:
   E E  E E E  E E  E E E  E E  E E E  E E E E
        A   s       A   s       A   s      A A
        D   u       D   u       D   u      D D
        D   s       D   s       D   s      D D
        9   4       9   4       9   4      9 9
e|-7-7--7-7-7--7-7--7-7-7--7-7--7-7-7--7-7-7-7-|
B|-9-9--7-9-10-9-9--7-9-10-9-9--7-9-10-9-9-7-7-|
G|-9-9--9-9-9--9-9--9-9-9--9-9--9-9-9--9-9-9-9-|
D|-9-9--9-9-9--9-9--9-9-9--9-9--9-9-9--9-9-9-9-|
A|-7-7--7-7-7--7-7--7-7-7--7-7--7-7-7--7-7-7-7-|
E|---------------------------------------------|
Si te cuesta leer este tipo de tablatura, pero te sabes bien las notas,
entonces podrás hacerlos con las notas cambiándolas rápidamente, acá el
orden:
E-E-Eadd9-E-Esus4-E-E-Eadd9-E-Esus4-E-E-Eadd9-E-Esus4-E-E-Eadd9-Eadd9
O simplemente toca el acorde E (Mi).


***El Riff 2 es un cambio entre A (La) y Aadd9
   A A  A  A A A
        A
        A
        D
        9
e|-0-0--0--0-0-0-|
B|-2-2--0--2-2-2-|
G|-2-2--2--2-2-2-|
D|-2-2--2--2-2-2-|
A|-0-0--0--0-0-0-|
E|---------------|
O simplemente toca el acorde A (La).


Acá las notas que se ocupan:
Para El Riff1         Para El Riff2
       E B G D A E           E B G D A E
E:     x 7 9 9 9 7    A:     x 0 2 2 2 0
Eadd9: x 7 9 9 7 7    Aadd9: x 0 2 2 0 0
Esus4: x 7 9 9 107

Notas comunes para solamente guitarrear sin tanto arreglo:
       EbGDAE
A:     x02220
B:     x24442
E:     022100
C#m:   x46654
G#m:   466444
Dadd9: xx0230

=======================================================================
Intro:

 Fade In...(Esto se escucha muy despacio y solo al comienzo)...Fade Out
e|---------------------------------------------------------------------|
B|---9---10---12---10---9----9---10---12---10---9----9---10---12---10--|
G|-9---9----9----9----9----9---9----9----9----9----9---9----9----9----9|
D|---------------------------------------------------------------------|
A|---------------------------------------------------------------------|
E|---------------------------------------------------------------------|

***Riff 1:
   E
e|---------------------------------------------|
B|-9-9--7-9-10-9-9--7-9-10-9-9--7-9-10-9-9-7-7-|
G|---------------------------------------------|
D|---------------------------------------------|
A|---------------------------------------------|
E|---------------------------------------------|

E (Riff1)
Yo soy como tú, sueño con volar
                            A (Riff2)
quiero ver la luz al despertar
          E(Riff1)
Soy como tú, tengo que aprender para saber
                              A(Riff2)
y quizá algun día volver a creer

          E(Riff1)
Soy como tú
        B            A           B     A
Voy dando palos de ciego por la vida

          E (Riff1)
Soy como tú, triste y feliz, contigo y sin tí
                             A(Riff2)       E (Riff1)
pero con el alma y el pelo gris, casi como tú
           B         A           B       A
Cuando escribo se me abren las heridas
        B             A             B
cuando canto se me incendia el corazón

        E   C#m        A            B
Yo soy como tú, no encuentro una salida
        G#m     C#m       A         B
siento una inquietud que crece cada día
  A                          B                E(Riff1)  A(Riff2)
y vivo al otro lado de la esquina, igual que tú

E
Yo era como tú, soñaba en un bar
                        A(Riff2)
mis ojos gritaban al mirar
            E
Y ahora mírame, hombre real de poca fe
                                A(Riff2)             E
siempre perdido, dormido en un tren que no puede parar

       B            A           B      A
Voy dando palos de ciego por la vida
     B            A            B
pero sólo le hago caso al corazón

       E    C#m     A          B
Yo soy como tú, me tumbo boca arriba
          G#m    C#m        A              B
y miro al cielo azul y doy gracias por la vida
     A                        B               E (Riff1)
he escrito miles de cartas perdidas, soy como tú

       C#m   Dadd9
Yo soy como tú
         E(Riff1)
Soy como tú
       C#m   Dadd9 E
Yo soy como tú

**********************************************************************

Dedicada a Alicia Belén Fuentes Cano, porque eres el amor de mi vida,
porque te amo hasta el infinito y más allá, y simplemente porque soy
como tú.

            
            
Suggest correction
Creating personal tab
Creating personal tab
You can edit any tab online and save it as your Personal.

You can edit, replace or remove any tab part or add personal notes – all changes will be seen only by you.

Personal tabs can be accessed anytime from any device, even offline.
Learn more »
Give kudos to tab author, rate the tab!
1 2 3 4 5
comments
print report bad tab
guest
Wanna post a correction for this tab? Suggest correction