Oops, an error
Loading. Please wait.

Sufre Mamón tab

version 1
version 1

Whole song

601 views 12 this week
no commentswrite comment
1 2 3 4 5
1 last vote to show rating
add to favorites
×
Save as Personal and add changes to this tab that will be seen only by you. Learn more ›
×
You can save this tab as Personal to edit and correct it or add notes. All changes will be seen only by you. Learn more »
launch autoscroll
font size
0
reset
how to read this tab
guitar tuner
edit
Autoscroll
slow
fast
+/-
esc
set tempo
stop
aqui les dejo la cancion de sufre mamón los acordes que estan aqui escritos
son los verdaderos no hagan caso a los acordes que sale...solo sigan los
acordes que les deje aqui abajo...me tomo tiempo sacarlos pero son los
verdaderos espero les ayude de mucho...

Dm:   557765
Am:   577555
G#m:  466444
Gm:   355333
A:    577655

los acordes que les dejo son para guitarra electrica pero si no tienen toquen
con los acordes normales

SOLO LAS NOTAS Bb y F SE TOCAN NORMAL DESPUES DE ESAS NOTAS TODAS SE TOCAN
COMO LES INDICO AQUI ARRIBA


intro: Dm Am / Dm Am


Dm                              Am
   Estoy llorando en mi habitacion
Dm                           Am
   todo se nubla a mi alrededor.
Am-G#m-Gm                      Dm
       Ella se fue con un ni~o pijo
Am-G#m-Gm                      A
        en un Ford Fiesta blanco

   y un jersey amarillo.


   Dm                      Am
   Por el parque los veo pasar
    Dm                       Am
   cuando se besan lo paso fatal.
Am-G#m-Gm                       Dm
       Voy a vengarme de ese marica
Am-G#m-Gm                  A
   voy a llenarle el cuello

   de polvos pica-pica.


   Bb        F
   Sufre, mamon
   Bb                F
   devuelveme a mi chica
   Bb         F
   o te retorseras
          Gm          A
   entre polvos pica-pica.


   Bb        F
   Sufre, mamon
   Bb                F
   devuelveme a mi chica
   Bb         F
   o te retorseras
          Gm          A
   entre polvos pica-pica.

SOLO:

1|-7/10-10-------------------------------7/10-10-13-10--|
2|---------10----6/8----8----8/10-10-10--7/10-10-10-10--|
3|------------10-----10---10----------------------------|
4|------------------------------------------------------|
5|------------------------------------------------------|
6|------------------------------------------------------|

1|------------------------------------------------------|
2|-----------------------------10-9----8---8------------|
3|-10/12-10-12-10-12/14-15-14--10-9----------7----------|
4|-----------------------------------8---8-----8-5------|
5|------------------------------------------------------|
6|------------------------------------------------------|

1|----------10------------------------------------------|
2|----10-------10-------10-9---8---8--------------------|
3|-10----10-------10-7--10-9---------7------------------|
4|---------------------------8---8-----8-5--------------|
5|------------------------------------------------------|
6|------------------------------------------------------|

1|---------------------------8/9/10-9/10/12--10---------|
2|--------------------8/9/10----------------------------|
3|--------------7/8/9-----------------------------------|
4|-5-6-7--5/6/7-----------------------------------------|
5|------------------------------------------------------|
6|------------------------------------------------------|

 Dm                   Am
   Le he quemado su jersey
   Dm                      Am
   se ha comprado cinco o seis.
Am-G#m-Gm                   Dm
       Voy a destrozarle el coche
Am-G#m-Gm               A
       Lo tengo preparado

   voy esta noche.


   Dm                        Am
   No te reiras nunca mas de mi
   Dm                      Am
   lo siento nene vas a morir.
Am-G#m-Gm                          Dm
       Me quitaste lo que mas queria
Am-G#m-Gm               A
        Y volvera conmigo

   volvera algun dia.


   Bb        F
   Sufre, mamon
   Bb                F
   devuelveme a mi chica
   Bb         F
   o te retorseras
          Gm          A
   entre polvos pica-pica.  x2

la ultima parte se repite dos veces

            
            
Suggest correction
Creating personal tab
Creating personal tab
You can edit any tab online and save it as your Personal.

You can edit, replace or remove any tab part or add personal notes – all changes will be seen only by you.

Personal tabs can be accessed anytime from any device, even offline.
Learn more »
Give kudos to tab author, rate the tab!
1 2 3 4 5
comments
print report bad tab
guest
Wanna post a correction for this tab? Suggest correction