Oops, an error
Loading. Please wait.

Un Minuto Nada Más tab

88 views 1 this week
no commentswrite comment
1 2 3 4 5
3 more votes to show rating
add to favorites
×
Save as Personal and add changes to this tab that will be seen only by you. Learn more ›
×
You can save this tab as Personal to edit and correct it or add notes. All changes will be seen only by you. Learn more »
launch autoscroll
font size
0
reset
how to read this tab
guitar tuner
edit
Autoscroll
slow
fast
+/-
esc
set tempo
stop
Acordes utilizados:

    C      D     D(10)   D(5)   D(2)  Dsus4     D7     D6    G(3)    A

e|--0------2------10------5------2------3-------2------2------3------0--|
B|--1------3------10------7------3------3-------1------3------3------2--|
G|--0------2------11------7------2------2-------2------4------4------2--|
D|--2------0------12------7------4------0-------0------0------5------2--|
A|--3------0------12------5------5------0-------0------0------5------0--|
E|--3------x------10------5------2------x-------x------x------3------0--|

    A7    A(5)   A7(5)   Bm

e|--0------5------5------2--|
B|--2------5------5------3--|
G|--0------6------6------4--|
D|--2------7------5------4--|
A|--0------7------7------2--|
B|--0------5------5------2--|


Parece complicado, pero simplemente el número entre paréntesis
es el traste donde deben hacer la cejilla, y formar la figura
que se indica

En las estrofas de la canción, mientras va el acorde D, y para
que no se oiga tan plana la canción pueden utilizar estos arreglos
que si bien es cierto no aparecen tal cual en la melodía, por lo
menos no se oyen mal. Si quieren pueden modificarlos a su gusto.

Los realizan mientras rasguean el acorde D, para no perder continuidad

     Arr1         Arr2              Arr3            Arr4

e|--3-0-2--|--3-2---0-2-0-2--|--3-2-0-2-0-2--|------0-----2--|
B|--3-0-3--|--3-3---3-3-0-3--|--3-3-3-3-0-3--|----3---3---3--|
G|--2-0-2--|--2-2---2-2-0-2--|--2-2-2-2-0-2--|--2-------2-2--|
D|--0-0-0--|--0-0---0-0-0-0--|--0-0-0-0-0-0--|------------0--|
A|--0-0-0--|--0-0---0-0-0-0--|--0-0-0-0-0-0--|------------0--|

Estos dos riffs los hacen dejando los dedos en Bm, para facilitar las cosas

       Riff 1                   Riff 2

e|---------------2--|----------------------------|
B|------------------|----------------------------|
G|------2-4--2------|------2-4--2---4-2---4-2----|
D|----4--------4----|----4--------4-----4-----4--|
A|--2---------------|--2-------------------------|
E|------------------|----------------------------|


INTRO:

1° Guitarra       D(10) D(5)  D(2)  D
                  |     |     |     |-------(Esta raya indica que el acorde
2° Guitarra  D|--12---9-7---5-4---2-0--|     entra cuando se toque ese
                                             traste, y viceversa)

Este arreglo de la segunda guitarra no es más que el seguimiento de la voz,
del "uuuuh".

D            Arr1
  Abrazameee
           Riff 1
antes de caer
    G(3)           A7               D  Arr2
aprietame en tus brazos por ultima vez.

D             Arr1
  Escuchameee
               Riff 2
antes de que grites
G(3)          A            D    Dsus4-D
dame solo un beso antes de irte


PRECORO

      G(3)    A        D    Dsus4-D
Dame solo un poco de tiempo
      C         G(3)
un minuto nada mas
       A(5)     G(3)    A(5)    A7(5)
solo quiero pensar y pedirteeeeee


CORO

D         Dsus4  D
Un minuto naada mas
     D7          D6           G(3) (No estoy muy seguro sobre el acorde D6,
el tiempo justo de poder mezclar    si quieren lo pueden cambiar por Bm)
     A(5)          G(3)
mis besos con tus lagrimas
     A7(5)
y poderte abrazar.

D         Dsus4  D
Un minuto naada mas
     D7           D6          G(3)
para estar juntos y poder hablar
A(5)              G(3)
    dame solo un minuto
A7(5)            Bm       D
    y no llores maaas.


INTRO

Arr4 D           Arr1
       Perdoname
         Riff 1
por olvidar
   G(3)        A               D             Arr3
como pedir perdon a quien se quiere de verdad

D          Arr1
  Y mirame
                   Riff 2
no hay mas que hablar
  G(3)        A           D  Dsus4-D
asomate a mi vida y llenala.


PRECORO

CORO

Sigue con los mismos acordes del coro

OUTRO

e|--2--2---3-2----0----|--2---2---3-2----0------|
B|--3----3-----3----3--|----3---3-----3----3----|
G|--2------------------|---------------------2--|
D|--0------------------|------------------------|.......
A|--0------------------|------------------------|
E|--x------------------|------------------------|

            
            
Suggest correction
Creating personal tab
Creating personal tab
You can edit any tab online and save it as your Personal.

You can edit, replace or remove any tab part or add personal notes – all changes will be seen only by you.

Personal tabs can be accessed anytime from any device, even offline.
Learn more »
Give kudos to tab author, rate the tab!
1 2 3 4 5
comments
print report bad tab
guest
Wanna post a correction for this tab? Suggest correction