Oops, an error
Loading. Please wait.

Filósofos Del Miedo tab

10 views 1 this week
no commentswrite comment
1 2 3 4 5
3 more votes to show rating
add to favorites
×
Save as Personal and add changes to this tab that will be seen only by you. Learn more ›
×
You can save this tab as Personal to edit and correct it or add notes. All changes will be seen only by you. Learn more »
launch autoscroll
font size
0
reset
how to read this tab
guitar tuner
edit
Autoscroll
slow
fast
+/-
esc
set tempo
stop
RIFF 1
      MI                  MI
|-------------------------------------------------|
|-------------------------------------------------|
|--------9-----------9-------------9-------9------|
|----9--------9--------9-------9-------9-----9----|
|--7---7----7---7--7-----7---7---7---7--7-7----7--|
|-------------------------------------------------|

RIFF 2
CHORUS   Play x 2 

|--7-----------------------------------|
|----9---------------------------------|
|------9-------------9---------9-------|
|--------9--7--9--7---9--7--7----9-7-9-|
|--------------------------------------|
|--------------------------------------|

  MI         RE   MI 
SIENTO LA REALIDAD
  MI       DO   RE
ABRAZANDO LA OSCURIDAD
  MI        SOL    RE   MI   RE-MI
PORQUE ME ENSEÑAS A ODIAR

  MI        RE    MI 
VEO ABRIRSE UN CAMINO
  MI        DO    RE
DE ANSIA Y DE DOLOR
  MI        SOL     RE   MI   RE-MI
RAZAS, BANDERAS Y REPRESION


   DO        LA
Y NO PUEDO ENTENDER
   RE          SOL 
ARGUMENTOS DE PODER
  DO    LA      SI
FILOSOFOS DEL MIEDO

  DO          LA
ABAJO EN LA CIUDAD
  RE          SOL
RECIBEN UNA DEBIL SEÑAL
  DO     LA      SI 
SE AHOGAN SUS LAMENTOS

------RIFF 2 CHORUS --------

  MI        RE  MI
SE AGOTAN LOS DIAS
  MI           DO    RE  
DEL ESTADO DE BIENESTAR
  MI         SOL     RE  MI
NUEVOS TRATADOS QUE CERRAR

  MI       RE  MI
DIAS PARA OLVIDAR
  MI       DO  RE  
FINGIENDO UN IDEAL
  MI        SOL         RE MI  RE-MI
COLORES QUE AYUDAN A MARGINAR

   DO         LA
Y NO PUEDO ENTENDER
   RE            SOL
TESIS Y JUICIOS DE FE
   DO      LA       SI 
QUE NUTREN TU DESPRECIO

   DO         LA 
ABAJO EN LA CIUDAD
   RE             SOL
EMITEN UNA DEBIL SEÑAL
    DO      LA      SI
SE AHOGAN SUS LAMENTOS

      -SOLO base en MIm

     DO       LA
Y NO PUEDO ENTENDER
      RE       SOL 
ARGUMENTOS DE PODER
  DO      LA      SI
FILOSOFOS DEL MIEDO

   DO         LA
ABAJO EN LA CIUDAD
   RE             SOL
EMITEN UNA DEBIL SEÑAL
   DO    LA        SI
AUN QUEDA ESPERANZA


chorus final
            Play x 2
|---------------------------------------------|
|-3----3----3-----3---------------------------|
|---4----4----4-----4-----5-4-----5-----4---4-|
|----------5----5-----5-5-----5-5---5-5---5---|
|---------------------------------------------|
|---------------------------------------------|

            Play x 2
|-------------------------------------------------------------|
|-10----10----10----10----------------------------------------|
|----11----11----11----11--------12-11-------12-------11---11-|
|-------------12----12----12--12-------12-12----12-12----12---|
|-------------------------------------------------------------|
|-------------------------------------------------------------|


Repetir RIFF 1 (inicio).
Suggest correction
Creating personal tab
Creating personal tab
You can edit any tab online and save it as your Personal.

You can edit, replace or remove any tab part or add personal notes – all changes will be seen only by you.

Personal tabs can be accessed anytime from any device, even offline.
Learn more »
Give kudos to tab author, rate the tab!
1 2 3 4 5
comments
print report bad tab
guest
Wanna post a correction for this tab? Suggest correction