Oops, an error
Loading. Please wait.

La Línea De Fuego chords

7 views 1 this week
no commentswrite comment
1 2 3 4 5
3 more votes to show rating
add to favorites
×
Save as Personal and add changes to this tab that will be seen only by you. Learn more ›
×
You can save this tab as Personal to edit and correct it or add notes. All changes will be seen only by you. Learn more »
launch autoscroll
font size
0
reset
transpose
0
reset
display chords
guitar tuner
edit
Autoscroll
slow
fast
+/-
esc
set tempo
stop
Strumming
There is no strumming pattern for this song yet. and get +5 IQ
Play x 4                   Play x 4
      D                  D           A        F      
|----------------------------|-------------------------------|
|----------------------------|-------------------------------|
|-----2-----------2----------|----2----------------9-------5-|
|--0----3--2--0-----3-2-3-2--|--0---3--2--0----7-----3--3----|
|----------------------------|-------------------------------|
|----------------------------|-------------------------------|

             Play x 4      
       A          G       C
|-----------------------------------|
|---------------------------------1-|
|-----------------------0-----------|
|-------2---------------------------|
|---0-----3--2--0---------3-3-------|
|--------------------3--------------|


SLIDE 
            Play x 2                  Play x 2
|------------------------------|----10--10-10--8--13----------|
|------------------------------|-8---------------------13-13--|
|-----7-7-7--5----10-----------|------------------------------|
|-5---------------------10--10-|------------------------------|
|------------------------------|------------------------------|
|------------------------------|------------------------------|


D         A       F
PRESIENTO QUE ESTA VEZ
D   A       F
TERMINO MI SUERTE
D         A   F
SALISTE DE MI VIDA
D         A   F
SIN DECIRME TU SECRETO


A      G      C
PERO YA NO TE CREO
A      G      C
PUDE VERTE TAN CERCA


D         A      F
SIENTO ARDER MIS MANOS
D         A      F
AL CONTACTO CON TU CUERPO 


F      D          A            C      
Y PUEDO VER LA NIEBLA CAER TAN CERCA
F      D          A            C      
Y PRESENTI, MI MUNDO VENIRSE ABAJO
F      D          A            C      
Y DESPERTARON MIS RECUERDOS DEL PASADO
F      A           D            C      
SUEÑO FUGAZ COMO ACIDO EN TU MENTE.
      
        
D - Bb - F
D - Bb - F          

                  Play x 2             
            D            
|-----------------------------|
|-----------------------------|
|-----2-----------2-----------|
|--0----3--2--0-----3-2-3-2---|
|-----------------------------|
|-----------------------------|


D      A          F
LLEGASTE CON LA MAÑANA
D      A          F
ENVUELTA EN MAGIA Y LUZ
D      A          F
DESPLEGANDO TUS SENTIDOS
D      A          F
SUMERGIDA EN LA MULTITUD

A      G      C
PERO YA NO TE CREO
A      G      C
PUDE VERTA TAN CERCA

D      A          F
SIENTO ARDER MIS MANOS 

D      A          F
AL CONTACTO CON TU CUERPO


F      D        A             C      
Y PUEDO VER LA NIEBLA CAER TAN CERCA
F      D        A            C      
Y PRESENTI, MI MUNDO VENIRSE ABAJO
F      D        A            C      
Y DESPERTARON MIS RECUERDOS DEL PASADO
F      A        D            C
SUEÑO FUGAZ COMO ACIDO EN TU MENTE


D - Bb - F   x  10

SLIDE 
|-------------------------------|------10--10-10--8--13----------|
|-------------------------------|---8--------------------13-13---|
|------7-7-7--5----10-----------|--------------------------------|
|--5--------------------10--10--|--------------------------------|
|-------------------------------|--------------------------------|
|-------------------------------|--------------------------------|


acordes FINAL: 
 D - A - F - Bb   x 8

 D

            
            
Suggest correction
Creating personal tab
Creating personal tab
You can edit any tab online and save it as your Personal.

You can edit, replace or remove any tab part or add personal notes – all changes will be seen only by you.

Personal tabs can be accessed anytime from any device, even offline.
Learn more »
Give kudos to tab author, rate the tab!
1 2 3 4 5
comments
print report bad tab
guest
Wanna post a correction for this tab? Suggest correction