Oops, an error
Loading. Please wait.

Sigue Tu Camino O Únete Al Mío tab

4 views 1 this week
no commentswrite comment
1 2 3 4 5
3 more votes to show rating
add to favorites
×
Save as Personal and add changes to this tab that will be seen only by you. Learn more ›
×
You can save this tab as Personal to edit and correct it or add notes. All changes will be seen only by you. Learn more »
launch autoscroll
font size
0
reset
how to read this tab
guitar tuner
edit
Autoscroll
slow
fast
+/-
esc
set tempo
stop
Tempo 146                              
bm bending

RIFF base LA                                          RE -  MI        
                       Play X 4
|--------------------/-----------------------------|
|--------------------/-----------------------------|
|--------------------/-----------------------------|
|--------------------/--5--5-----------------------|
|-5-5--5-5--5-5---5-5/---7--7--5-------------------|
|-0-0--0-0--0-0---0-0/-----------7---7-6-5-6-7-6-5-|

      Play x 2
|----------------------------/--------|
|----------------------------/--------|
|----------------------------/--------|
|----------------------------/---8----|
|------0------0------0-----0-/---8----|
|--3-4----3-4----3-4---3-4---/--6-----|
                        LA#            

RIFF 1 MI:
|----------------------------------|
|----------------------------------|
|----------------------------------|
|--------5--5----------------------|
|---5-5---7--7--5------------------|
|---0-0-----------7---7-6-5-6-7-6-5|

MI       SOL
PODEMOS HABLAR
MI              SOL
O ESTA TODO ESCRITO
RE           DO
PERDIMOS EL NORTE
MI              SOL
EN RUMBO DESCONOCIDO.

RIFF 2 FA#
|-----------------------------------|
|-----------------------------------|
|-----------------------------------|
|--------7--7-----------------------|
|---5-5---9--9--7-------------------|
|---0-0-----------9---9-8-7-8-9-8-7-|

FA#        LA
SALTANDO NORMAS
FA#
SIGUIENDOTE 5ª C - 9-9--8-8--7-7--6-6--5-5
MI         SOL     MI       SOL
SIGUE TU CAMINO O UNETE AL MIO

DO        LA             MI-RE#  MI      RE#
VEN OTRA VEZ, NO ME DEJES SOLO, NO RESISTIRE.
DO        LA   MI   RE#
VEN OTRA VEZ, OTRA VEZ.

|-------3--3--5--5---3------------3--3--5--5--3------------
|--------3--3--3--3---3--3-5--5-3--3--3--3--3--3--3-5-5-3--
|----------------------------------------------------------
|----------------------------------------------------------
|-5-5-5----------------------------------------------------
|-0-0-0----------------------------------------------------

---3-----3-----3-----3-------------------------------------|
-3-----3-----3-----3---------------------------------------|
----5b----5b----5b----5b-5--3------------------------------|
------------------------------5--3---------------3--5------|
-----------------------------------5--3-1---1-3-5----------|
------------------------------------------3----------------|


RIFF 1 MI
MI            SOL
ME JUEGO EL ALMA
MI            SOL
LUCHO POR SEGUIR
RE               DO
PERO LAS PAREDES OYEN
MI            SOL
ES TIEMPO DE HUIR

RIFF 2 FA#
FA#           LA
SALTANDO BARRERAS
FA#
SIGUIENDOTE 5ªC -9-9--8-8--7-7--6-6--5-5
MI          SOL    MI       SOL
SIGUE TU CAMINO O UNETE AL MIO


DO        LA         MI-RE#    MI     RE#
VEN OTRA VEZ, NO ME DEJES SOLO NO RESISTIRE
DO        LA    MI   RE#
VEN OTRA VEZ, OTRA VEZ.


SOLO Tone SOL/MI/RE
|-------3--3--5--5---3------------3--3--5--5--3------------
|--------3--3--3--3---3--3-5--5-3--3--3--3--3--3--3-5-5-3--
|----------------------------------------------------------
|----------------------------------------------------------
|-5-5-5----------------------------------------------------
|-0-0-0----------------------------------------------------

---3-----3-----3-----3-------------------------------------
-3-----3-----3-----3---------------------------------------
----5b----5b----5b----5b-5--3------------------------------
------------------------------5--3---------------3--5------
-----------------------------------5--3-1---1-3-5----------
------------------------------------------3----------------


-----12----12----12----12--15b-15-12-----------------------
-----12----12----12----12------------15b-15-12-------------
--14b---14b---14b---14b-----------------------14b-12-------
-----------------------------------------------------14----
-----------------------------------------------------------
-----------------------------------------------------------

Escala en RE
-----------------------------------------------5-8-5-----8-10-|
-----------------------------------6---6-8-6-8-------8-5------|
-----------------------5---5-7-5-7---7------------------------|
-----3---3-5-3--5-7-5-7--7------------------------------------|
5-3-5--5------------------------------------------------------|
--------------------------------------------------------------|

RIFF FINAL
|--------------------------------------------------------------|
|--------------------------------------------------------------|
|--------------------------------------------------------------|
|--------------------------------------------------------------|
|-5-5--5-5--5-5--5--------5-5-5---------5-5-5------------------|
|-0-0--0-0--0-0---7-6-5-0-0-0---7-6-5-0-0-0---7-6-5-0-3-3-2-2--|


SEMIARPERGIO CHORUS FINAL
|-------------------------------------------------------|
|-------------------------------------------------------|
|----9-----12---9----12---9----12----14---9----12----14-|
|--7-----10----7---10----7---10----12----7---10----12---|
|-------------------------------------------------------|
|-------------------------------------------------------|
   LA     DO   LA   DO   LA   DO    RE   LA   DO    RE

            
            
Suggest correction
Creating personal tab
Creating personal tab
You can edit any tab online and save it as your Personal.

You can edit, replace or remove any tab part or add personal notes – all changes will be seen only by you.

Personal tabs can be accessed anytime from any device, even offline.
Learn more »
Give kudos to tab author, rate the tab!
1 2 3 4 5
comments
print report bad tab
guest
Wanna post a correction for this tab? Suggest correction