Oops, an error
Loading. Please wait.

Con Mi Condena tab

89 views 1 this week
no commentswrite comment
1 2 3 4 5
3 more votes to show rating
add to favorites
×
Save as Personal and add changes to this tab that will be seen only by you. Learn more ›
×
You can save this tab as Personal to edit and correct it or add notes. All changes will be seen only by you. Learn more »
launch autoscroll
font size
0
reset
how to read this tab
guitar tuner
edit
Autoscroll
slow
fast
+/-
esc
set tempo
stop
Tablatura de la Guitarra de Paco Luque. Desde Nestares, Cantabria
hasta Andalucia y al mundo entero con estos virtuosos!!

                                            PM PM PM PM
      S  S  S  S  S  S  S  S  S  S  S  S  S T  T  S  S
E||-----------------------------------------------------|
B||-----------------------------------------------------|
G||-----------------------------------------------------|
D||-----------------------------------------------------|
A||-----------------------------------------------------|
D||--12p-0-13p-0-12p-0-13p-0-12p-0-13p-0-12-0--0--0--0--|


                                         PM PM PM PM
   S  S  S  S  S  S  S  S  S  S  S  S  S T  T  S  S
-----------------------------------------------------|
-----------------------------------------------------|
-----------------------------------------------------|
-----------------------------------------------------|
-----------------------------------------------------|
--12p-0-13p-0-12p-0-13p-0-12p-0-13p-0-12-0--0--0--0--|


                                         PM PM PM PM
   S  S  S  S  S  S  S  S  S  S  S  S  S T  T  S  S
-----------------------------------------------------|
-----------------------------------------------------|
-----------------------------------------------------|
-----------------------------------------------------|
-----------------------------------------------------|
--12p-0-13p-0-12p-0-13p-0-12p-0-13p-0-12-0--0--0--0--|


                                   W
   S  S  S  S S  S  S  S S  S S  S Q
----------------------------------------|
----------------------------------------|
----------------------------------------|
----------------------------------------|
----------------------------------------|
--10p-0-12p-0-8p-0-10p-0-7p-0-8p-0-7----|


                                         PM PM PM PM
   S  S  S  S  S  S  S  S  S  S  S  S  S T  T  S  S
-----------------------------------------------------|
-----------------------------------------------------|
-----------------------------------------------------|
-----------------------------------------------------|
-----------------------------------------------------|
--12p-0-13p-0-12p-0-13p-0-12p-0-13p-0-12-0--0--0--0--|


                                         PM PM PM PM
   S  S  S  S  S  S  S  S  S  S  S  S  S T  T  S  S
-----------------------------------------------------|
-----------------------------------------------------|
-----------------------------------------------------|
-----------------------------------------------------|
-----------------------------------------------------|
--12p-0-13p-0-12p-0-13p-0-12p-0-13p-0-12-0--0--0--0--|


                                         PM PM PM PM
   S  S  S  S  S  S  S  S  S  S  S  S  S T  T  S  S
-----------------------------------------------------|
-----------------------------------------------------|
-----------------------------------------------------|
-----------------------------------------------------|
-----------------------------------------------------|
--12p-0-13p-0-12p-0-13p-0-12p-0-13p-0-12-0--0--0--0--|


                                   W
   S  S  S  S S  S  S  S S  S S  S Q
----------------------------------------|
----------------------------------------|
----------------------------------------|
----------------------------------------|
----------------------------------------|
--10p-0-12p-0-8p-0-10p-0-7p-0-8p-0-7----|


                                         PM PM PM PM
   S  S  S  S  S  S  S  S  S  S  S  S  S T  T  S  S
-----------------------------------------------------|
-----------------------------------------------------|
-----------------------------------------------------|
-----------------------------------------------------|
-----------------------------------------------------|
--12p-0-13p-0-12p-0-13p-0-12p-0-13p-0-12-0--0--0--0--|


                                         PM PM PM PM
   S  S  S  S  S  S  S  S  S  S  S  S  S T  T  S  S
-----------------------------------------------------|
-----------------------------------------------------|
-----------------------------------------------------|
-----------------------------------------------------|
-----------------------------------------------------|
--12p-0-13p-0-12p-0-13p-0-12p-0-13p-0-12-0--0--0--0--|


                                         PM PM PM PM
   S  S  S  S  S  S  S  S  S  S  S  S  S T  T  S  S
-----------------------------------------------------|
-----------------------------------------------------|
-----------------------------------------------------|
-----------------------------------------------------|
-----------------------------------------------------|
--12p-0-13p-0-12p-0-13p-0-12p-0-13p-0-12-0--0--0--0--|


   S  S  S  S S  S  S  S S  S S  S S S S S
-------------------------------------------|
-------------------------------------------|
-------------------------------------------|
-------------------------------------------|
-------------------------------------------|
--10p-0-12p-0-8p-0-10p-0-7p-0-8p-0-7-5-3-1-|


  PM PM PM PM PM PM PM PM PM PM PM PM
  S  E  S  S  E  S  S  E  S  S  E  S
--------------------------------------|
--------------------------------------|
--------------------------------------|
--0--0--0--0--0--0--0--0--0--0--0--0--|
--0--0--0--0--0--0--0--0--0--0--0--0--|
--0--0--0--0--0--0--0--0--0--0--0--0--|


  PM PM PM PM PM PM PM PM PM PM PM PM
  S  E  S  S  E  S  S  E  S  S  E  S
--------------------------------------|
--------------------------------------|
--------------------------------------|
--0--0--0--0--0--0--0--0--0--0--0--0--|
--0--0--0--0--0--0--0--0--0--0--0--0--|
--0--0--0--0--0--0--0--0--0--0--0--0--|


  S E  S S E  S S E  S S E  S    S E  S S E  S S E  S S E  S
------------------------------|------------------------------|
------------------------------|------------------------------|
------------------------------|------------------------------|
--0-0--0-0-0--0-0-0--0-0-0--1-|--0-0--0-0-0--0-0-0--0-0-0--1-|
--0-0--0-0-0--0-0-0--0-0-0--1-|--0-0--0-0-0--0-0-0--0-0-0--1-|
--0-0--0-0-0--0-0-0--0-0-0--1-|--0-0--0-0-0--0-0-0--0-0-0--1-|


  S E  S S E  S S E  S S E  S    S E  S S E  S S E  S S E  S
------------------------------|------------------------------|
------------------------------|------------------------------|
------------------------------|------------------------------|
--0-0--0-0-0--0-0-0--0-0-0--1-|--0-0--0-0-0--0-0-0--0-0-0--1-|
--0-0--0-0-0--0-0-0--0-0-0--1-|--0-0--0-0-0--0-0-0--0-0-0--1-|
--0-0--0-0-0--0-0-0--0-0-0--1-|--0-0--0-0-0--0-0-0--0-0-0--1-|


  S S S S S S S S S S S S S S S S
----------------------------------|
----------------------------------|
--7-7-7-7-7-7-7-7-7-7-7-7-5-5-8-8-|
--7-7-7-7-7-7-7-7-7-7-7-7-5-5-8-8-|
--5-5-5-5-5-5-5-5-5-5-5-5-3-3-6-6-|
----------------------------------|


  S S S S S S S S S S S S S S S S
----------------------------------|
----------------------------------|
--7-7-7-7-7-7-7-7-7-7-5-5-3-3-2-2-|
--7-7-7-7-7-7-7-7-7-7-5-5-3-3-2-2-|
--5-5-5-5-5-5-5-5-5-5-3-3-1-1-0-0-|
----------------------------------|


  S S S S S S S S S S S S S S S S
----------------------------------|
----------------------------------|
--7-7-7-7-7-7-7-7-7-7-7-7-5-5-8-8-|
--7-7-7-7-7-7-7-7-7-7-7-7-5-5-8-8-|
--5-5-5-5-5-5-5-5-5-5-5-5-3-3-6-6-|
----------------------------------|


  S S S S S S S S S S S S S S S S
----------------------------------|
----------------------------------|
--7-7-7-7-7-7-7-7-7-7-5-5-3-3-2-2-|
--7-7-7-7-7-7-7-7-7-7-5-5-3-3-2-2-|
--5-5-5-5-5-5-5-5-5-5-3-3-1-1-0-0-|
----------------------------------|


  E.  S E  E  E  E  Q       E.  S E  E  E  E  Q
-------------------------|-------------------------|
-------------------------|-------------------------|
-------------------------|-------------------------|
--8---7-5--8--7--5--4----|--5---3-1--5--3--1--0----|
--8---7-5--8--7--5--4----|--5---3-1--5--3--1--0----|
--8---7-5--8--7--5--4----|--5---3-1--5--3--1--0----|


  E.   S  E  E  E  E  Q
---------------------------|
---------------------------|
---------------------------|
--8---10-12--8--7--5--4----|
--8---10-12--8--7--5--4----|
--8---10-12--8--7--5--4----|


  E.  S E  E  E  E  Q
-------------------------|
-------------------------|
-------------------------|
--5---3-1--5--3--1--0----|
--5---3-1--5--3--1--0----|
--5---3-1--5--3--1--0----|


  PM PM PM PM PM PM PM PM PM PM PM PM PM PM PM PM
  S  S  S  S  S  S  S  S  S  S  S  S  S  S  S  S
--------------------------------------------------|
--------------------------------------------------|
--------------------------------------------------|
--------------------------------------------------|
--------------------------------------------------|
--8--8--7--7--5--5--8--8--7--7--5--5--4--4--4--4--|


  PM PM PM PM PM PM PM PM PM PM PM PM PM PM PM PM
  S  S  S  S  S  S  S  S  S  S  S  S  S  S  S  S
--------------------------------------------------|
--------------------------------------------------|
--------------------------------------------------|
--------------------------------------------------|
--------------------------------------------------|
--5--5--3--3--1--1--5--5--3--3--1--1--0--0--0--0--|


  PM PM PM PM PM PM PM PM PM PM PM PM PM PM PM PM
  S  S  S  S  S  S  S  S  S  S  S  S  S  S  S  S
--------------------------------------------------|
--------------------------------------------------|
--------------------------------------------------|
--------------------------------------------------|
--------------------------------------------------|
--8--8--7--7--5--5--8--8--7--7--5--5--4--4--4--4--|


  PM PM PM PM PM PM PM PM PM PM PM PM PM PM PM PM
  S  S  S  S  S  S  S  S  S  S  S  S  S  S  S  S
--------------------------------------------------|
--------------------------------------------------|
--------------------------------------------------|
--------------------------------------------------|
--------------------------------------------------|
--5--5--3--3--1--1--5--5--3--3--1--1--0--0--0--0--|


                                         PM PM PM PM
   S  S  S  S  S  S  S  S  S  S  S  S  S T  T  S  S
-----------------------------------------------------|
-----------------------------------------------------|
-----------------------------------------------------|
-----------------------------------------------------|
-----------------------------------------------------|
--12p-0-13p-0-12p-0-13p-0-12p-0-13p-0-12-0--0--0--0--|


                                         PM PM PM PM
   S  S  S  S  S  S  S  S  S  S  S  S  S T  T  S  S
-----------------------------------------------------|
-----------------------------------------------------|
-----------------------------------------------------|
-----------------------------------------------------|
-----------------------------------------------------|
--12p-0-13p-0-12p-0-13p-0-12p-0-13p-0-12-0--0--0--0--|


                                         PM PM PM PM
   S  S  S  S  S  S  S  S  S  S  S  S  S T  T  S  S
-----------------------------------------------------|
-----------------------------------------------------|
-----------------------------------------------------|
-----------------------------------------------------|
-----------------------------------------------------|
--12p-0-13p-0-12p-0-13p-0-12p-0-13p-0-12-0--0--0--0--|


   S  S  S  S S  S  S  S S  S S  S S S S S
-------------------------------------------|
-------------------------------------------|
-------------------------------------------|
-------------------------------------------|
-------------------------------------------|
--10p-0-12p-0-8p-0-10p-0-7p-0-8p-0-7-5-3-1-|


  PM PM PM PM PM PM PM PM PM PM PM PM
  S  E  S  S  E  S  S  E  S  S  E  S
--------------------------------------|
--------------------------------------|
--------------------------------------|
--0--0--0--0--0--0--0--0--0--0--0--0--|
--0--0--0--0--0--0--0--0--0--0--0--0--|
--0--0--0--0--0--0--0--0--0--0--0--0--|


  PM PM PM PM PM PM PM PM PM PM PM PM
  S  E  S  S  E  S  S  E  S  S  E  S
--------------------------------------|
--------------------------------------|
--------------------------------------|
--0--0--0--0--0--0--0--0--0--0--0--0--|
--0--0--0--0--0--0--0--0--0--0--0--0--|
--0--0--0--0--0--0--0--0--0--0--0--0--|


  S E  S S E  S S E  S S E  S    S E  S S E  S S E  S S E  S
------------------------------|------------------------------|
------------------------------|------------------------------|
------------------------------|------------------------------|
--0-0--0-0-0--0-0-0--0-0-0--1-|--0-0--0-0-0--0-0-0--0-0-0--1-|
--0-0--0-0-0--0-0-0--0-0-0--1-|--0-0--0-0-0--0-0-0--0-0-0--1-|
--0-0--0-0-0--0-0-0--0-0-0--1-|--0-0--0-0-0--0-0-0--0-0-0--1-|


  S E  S S E  S S E  S S E  S    S E  S S E  S S E  S S E  S
------------------------------|------------------------------|
------------------------------|------------------------------|
------------------------------|------------------------------|
--0-0--0-0-0--0-0-0--0-0-0--1-|--0-0--0-0-0--0-0-0--0-0-0--1-|
--0-0--0-0-0--0-0-0--0-0-0--1-|--0-0--0-0-0--0-0-0--0-0-0--1-|
--0-0--0-0-0--0-0-0--0-0-0--1-|--0-0--0-0-0--0-0-0--0-0-0--1-|


  S S S S S S S S S S S S S S S S
----------------------------------|
----------------------------------|
--7-7-7-7-7-7-7-7-7-7-7-7-5-5-8-8-|
--7-7-7-7-7-7-7-7-7-7-7-7-5-5-8-8-|
--5-5-5-5-5-5-5-5-5-5-5-5-3-3-6-6-|
----------------------------------|


  S S S S S S S S S S S S S S S S
----------------------------------|
----------------------------------|
--7-7-7-7-7-7-7-7-7-7-5-5-3-3-2-2-|
--7-7-7-7-7-7-7-7-7-7-5-5-3-3-2-2-|
--5-5-5-5-5-5-5-5-5-5-3-3-1-1-0-0-|
----------------------------------|


  S S S S S S S S S S S S S S S S
----------------------------------|
----------------------------------|
--7-7-7-7-7-7-7-7-7-7-7-7-5-5-8-8-|
--7-7-7-7-7-7-7-7-7-7-7-7-5-5-8-8-|
--5-5-5-5-5-5-5-5-5-5-5-5-3-3-6-6-|
----------------------------------|


  S S S S S S S S S S S S S S S S
----------------------------------|
----------------------------------|
--7-7-7-7-7-7-7-7-7-7-5-5-3-3-2-2-|
--7-7-7-7-7-7-7-7-7-7-5-5-3-3-2-2-|
--5-5-5-5-5-5-5-5-5-5-3-3-1-1-0-0-|
----------------------------------|


  E.  S E  E  E  E  Q       E.  S E  E  E  E  Q
-------------------------|-------------------------|
-------------------------|-------------------------|
-------------------------|-------------------------|
--8---7-5--8--7--5--4----|--5---3-1--5--3--1--0----|
--8---7-5--8--7--5--4----|--5---3-1--5--3--1--0----|
--8---7-5--8--7--5--4----|--5---3-1--5--3--1--0----|


  E.   S  E  E  E  E  Q
---------------------------|
---------------------------|
---------------------------|
--8---10-12--8--7--5--4----|
--8---10-12--8--7--5--4----|
--8---10-12--8--7--5--4----|


  E.  S E  E  E  E  Q
-------------------------|
-------------------------|
-------------------------|
--5---3-1--5--3--1--0----|
--5---3-1--5--3--1--0----|
--5---3-1--5--3--1--0----|


  PM PM PM PM PM PM PM PM PM PM PM PM PM PM PM PM
  S  S  S  S  S  S  S  S  S  S  S  S  S  S  S  S
--------------------------------------------------|
--------------------------------------------------|
--------------------------------------------------|
--------------------------------------------------|
--------------------------------------------------|
--8--8--7--7--5--5--8--8--7--7--5--5--4--4--4--4--|


  PM PM PM PM PM PM PM PM PM PM PM PM PM PM PM PM
  S  S  S  S  S  S  S  S  S  S  S  S  S  S  S  S
--------------------------------------------------|
--------------------------------------------------|
--------------------------------------------------|
--------------------------------------------------|
--------------------------------------------------|
--5--5--3--3--1--1--5--5--3--3--1--1--0--0--0--0--|


  PM PM PM PM PM PM PM PM PM PM PM PM PM PM PM PM
  S  S  S  S  S  S  S  S  S  S  S  S  S  S  S  S
--------------------------------------------------|
--------------------------------------------------|
--------------------------------------------------|
--------------------------------------------------|
--------------------------------------------------|
--8--8--7--7--5--5--8--8--7--7--5--5--4--4--4--4--|


  PM PM PM PM PM PM PM PM PM PM PM PM PM PM PM PM
  S  S  S  S  S  S  S  S  S  S  S  S  S  S  S  S
--------------------------------------------------|
--------------------------------------------------|
--------------------------------------------------|
--------------------------------------------------|
--------------------------------------------------|
--5--5--3--3--1--1--5--5--3--3--1--1--0--0--0--0--|


                                         PM PM PM PM
   S  S  S  S  S  S  S  S  S  S  S  S  S T  T  S  S
-----------------------------------------------------|
-----------------------------------------------------|
-----------------------------------------------------|
-----------------------------------------------------|
-----------------------------------------------------|
--12p-0-13p-0-12p-0-13p-0-12p-0-13p-0-12-0--0--0--0--|


                                         PM PM PM PM
   S  S  S  S  S  S  S  S  S  S  S  S  S T  T  S  S
-----------------------------------------------------|
-----------------------------------------------------|
-----------------------------------------------------|
-----------------------------------------------------|
-----------------------------------------------------|
--12p-0-13p-0-12p-0-13p-0-12p-0-13p-0-12-0--0--0--0--|


                                         PM PM PM PM
   S  S  S  S  S  S  S  S  S  S  S  S  S T  T  S  S
-----------------------------------------------------|
-----------------------------------------------------|
-----------------------------------------------------|
-----------------------------------------------------|
-----------------------------------------------------|
--12p-0-13p-0-12p-0-13p-0-12p-0-13p-0-12-0--0--0--0--|


                                   W
   S  S  S  S S  S  S  S S  S S  S Q
----------------------------------------|
----------------------------------------|
----------------------------------------|
----------------------------------------|
----------------------------------------|
--10p-0-12p-0-8p-0-10p-0-7p-0-8p-0-7----|


  S S S S S S S S S S S S S S S S
----------------------------------|
----------------------------------|
----------------------------------|
----------------------------------|
----------------------------------|
--1-4-3-4-1-4-3-4-1-4-3-4-1-4-3-4-|


  Q    Q    H           S S S S S S S S S S S S S S S S
---------------------|----------------------------------|
---------------------|----------------------------------|
---------------------|----------------------------------|
--0----0----0--------|----------------------------------|
--0----0----0--------|----------------------------------|
--0----0----0--------|--1-4-3-4-1-4-3-4-1-4-3-4-1-4-3-4-|


  Q    Q    H
---------------------|
---------------------|
---------------------|
--0----0----0--------|
--0----0----0--------|
--0----0----0--------|


  S S S S S S S S S S S S S S S S    Q    Q    H
----------------------------------|---------------------|
----------------------------------|---------------------|
----------------------------------|---------------------|
----------------------------------|--0----0----0--------|
----------------------------------|--0----0----0--------|
--1-4-3-4-1-4-3-4-1-4-3-4-1-4-3-4-|--0----0----0--------|


  S S S S S S S S S S S S S S S S    Q    Q    H
----------------------------------|---------------------|
----------------------------------|---------------------|
----------------------------------|---------------------|
----------------------------------|--0----0----0--------|
----------------------------------|--0----0----0--------|
--1-4-3-4-1-4-3-4-1-4-3-4-1-4-3-4-|--0----0----0--------|


                                         PM PM PM
   S  S  S  S  S  S  S  S  S  S  S  S  S S  S  S
--------------------------------------------------|
--------------------------------------------------|
--------------------------------------------------|
--------------------------------------------------|
--------------------------------------------------|
--12p-0-13p-0-12p-0-13p-0-12p-0-13p-0-12-0--0--0--|


                                         PM PM PM
   S  S  S  S  S  S  S  S  S  S  S  S  S S  S  S
--------------------------------------------------|
--------------------------------------------------|
--------------------------------------------------|
--------------------------------------------------|
--------------------------------------------------|
--12p-0-13p-0-12p-0-13p-0-12p-0-13p-0-12-0--0--0--|


                                         PM PM PM
   S  S  S  S  S  S  S  S  S  S  S  S  S S  S  S
--------------------------------------------------|
--------------------------------------------------|
--------------------------------------------------|
--------------------------------------------------|
--------------------------------------------------|
--12p-0-13p-0-12p-0-13p-0-12p-0-13p-0-12-0--0--0--|


                                   W
   S  S  S  S S  S  S  S S  S S  S Q
----------------------------------------|
----------------------------------------|
----------------------------------------|
----------------------------------------|
----------------------------------------|
--10p-0-12p-0-8p-0-10p-0-7p-0-8p-0-7----|


   S  S  S  S S  S  S  S S  S S  S S S S S
-------------------------------------------|
-------------------------------------------|
-------------------------------------------|
-------------------------------------------|
-------------------------------------------|
--10p-0-12p-0-8p-0-10p-0-7p-0-8p-0-7-------|


   S  S  S  S S  S  S  S S  S S  S S S S S
-------------------------------------------|
-------------------------------------------|
-------------------------------------------|
-------------------------------------------|
-------------------------------------------|
--10p-0-12p-0-8p-0-10p-0-7p-0-8p-0-7-------|


   S  S  S  S S  S  S  S S  S S  S S S S S
-------------------------------------------|
-------------------------------------------|
-------------------------------------------|
-------------------------------------------|
-------------------------------------------|
--10p-0-12p-0-8p-0-10p-0-7p-0-8p-0-7-------|


   S  S  S  S  S  S  S  S  S  S  S  S  S  S  S  S
--------------------------------------------------|
--------------------------------------------------|
--------------------------------------------------|
--------------------------------------------------|
--------------------------------------------------|
--10p-0-12p-0-13p-0-12p-0-15p-0-13p-0-12p-0-13p-0-|

   E  E  Q    H
-----------------------||
-----------------------||
-----------------------||
--12-------------------||
--12-------------------||
--12-------------------||


Duration Legend
---------------
W - whole
H - half
Q - quarter
E - 8th
S - 16th
T - 32nd
X - 64th
. - note dotted
|-n-|  - n-tuplets


Tablature Legend
----------------
L - tied note
x - dead note
g - grace note
(n) - ghost note
> - accentuded note
NH - natural harmonic
AH - artificial harmonic
TH - tapped harmonic
SH - semi harmonic
PH - pitch harmonic
h - hammer on
p - pull off
b - bend
br - bendRelease
pb - preBend
pbr - preBendRelease
brb - bendReleaseBend
n/ - tremolo bar dip
n - tremolo bar dive
-/n - tremolo bar Release up
/n - tremolo bar inverted dip
/n - tremolo bar return
-n - tremolo bar Release down
S - shift slide
s - legato slide
/ -  slide into from below or out of upwards
 -  slide into from above or out of downwards
~ - vibrato
W - wide vibrato
tr - trill
TP - tremolo picking
T - tapping
S - slap
P - pop
< - fade in
^ - brush up
v - brush down

            
            
Suggest correction
Creating personal tab
Creating personal tab
You can edit any tab online and save it as your Personal.

You can edit, replace or remove any tab part or add personal notes – all changes will be seen only by you.

Personal tabs can be accessed anytime from any device, even offline.
Learn more »
Give kudos to tab author, rate the tab!
1 2 3 4 5
comments
print report bad tab
guest
Wanna post a correction for this tab? Suggest correction