Oops, an error
Loading. Please wait.

Lejos De Aquí chords

by Horcas
14 views 3 this week
no commentswrite comment
1 2 3 4 5
3 more votes to show rating
add to favorites
×
Save as Personal and add changes to this tab that will be seen only by you. Learn more ›
×
You can save this tab as Personal to edit and correct it or add notes. All changes will be seen only by you. Learn more »
launch autoscroll
font size
0
reset
transpose
0
reset
display chords
guitar tuner
edit
Autoscroll
slow
fast
+/-
esc
set tempo
stop
Strumming
There is no strumming pattern for this song yet. and get +5 IQ
Intro. Base.

e|----------------------------------------------|
B|----------------------------------------------|
G|----------------------------------------------|
D|----------------------------------------------| 
A|---------5---------7---------8---------7-8-5--|
E|-0-0-0-0-3-0-0-0-0-5-0-0-0-0-6-0-0-0-0-5-6-3--| 

Riff 1

e|-------------------------|
B|-------------------------|
G|-------------------------|
D|-9-11-12-12---12-11-9-9--| 
A|-7--9-10-10---10--9-7-7--|
E|-------------------------|

Estribillo (Lejos de aqui viviras...)

e|--------------------------------------|
B|--------------------------------------|
G|--------------------------------------|
D|-------5-----5-------5-----5-------5--| 
A|-0-0-0-3-0-0-3-0-0-0-3-0-0-3-0-0-0-3--|
E|--------------------------------------| 

Final.

e|----------------------------------------------------------------|
B|----------------------------------------------------------------|
G|-------------------------------------------------------------4--|
D|------------------------------------------------2-4-5--2-4-5----| 
A|---------5---------7---------8--8-7--7-5--5-2-------------------|
E|-0-0-0-0-3-0-0-0-0-5-0-0-0-0-6--6-5--5-3--3-0-------------------| 

BASTA
NO OCULTES TU TRAICION
HERIDO EN LAS SOMBRAS
ESCUPES TU RENCOR

ANTES
QUE VOS YO VIVIRE
CIEGO EL DELIRIO
ME TAPA LA EMBRIAGUES

 

DEJA
TU MIEDO DESCANSAR
CUENTAME TU HISTORIA
TU VOZ SABRA GRITAR

 

LEJOS DE AQUÍ VIVIRAS

BASTA NO OCULTES TU TRAICION.
Suggest correction
Creating personal tab
Creating personal tab
You can edit any tab online and save it as your Personal.

You can edit, replace or remove any tab part or add personal notes – all changes will be seen only by you.

Personal tabs can be accessed anytime from any device, even offline.
Learn more »
Give kudos to tab author, rate the tab!
1 2 3 4 5
comments
print report bad tab
guest
Wanna post a correction for this tab? Suggest correction