Oops, an error
Loading. Please wait.

El No Eres Tú tab

25 views 1 this week
no commentswrite comment
1 2 3 4 5
3 more votes to show rating
add to favorites
×
Save as Personal and add changes to this tab that will be seen only by you. Learn more ›
×
You can save this tab as Personal to edit and correct it or add notes. All changes will be seen only by you. Learn more »
launch autoscroll
font size
0
reset
how to read this tab
guitar tuner
edit
Autoscroll
slow
fast
+/-
esc
set tempo
stop
SALUDOS DESDE ESCARCEGA, CAMPECHE, MEXICO
TAB HECHO POR EL GUITARRISTA ?PERRRUZZY?

TUVE LA OPORTUNIDAD DE ESCUCHAR DESDE MI CASA
(POR QUE ESTABA ENFERMO) A ESTAS MUJERES HERMOSAS Y GUAPAS
CUANDO TOKARON EN CONCIERTO CERCA DE DONDE VIVO. AGOSTO DE 2008

NO SOY SEGUIDOR DEL RITMO DURENGUENSE
PERO ESTA ES UNA GRAN ROLA ACUSTICA. ¡¡¡ESTA GENIAL!!!
CHIDA PARA TROVAR ACOMPAÑANDO LA VOZ DE UNA MUJER HERMOSA

DEDICADA A NEULA DE LA CRUZ RODRIGUEZ
DESDE QUE TE CON0CI SUPE QUE TE AMARIA POR SIEMPRE PEQUEÑITA.
DONDE ESTES? Y AUNQUE NO ME HAGAS CASO: ESTA CANCION ES PARA TI.

INTRO:
                 F                     Dm
e------------5-6-6s7~-----5-5h6p5------6s8~-----
B------5-6-7---------------------8-6------------
G--5-7------------------------------------------
D-----------------------------------------------
A-----------------------------------------------
E-----------------------------------------------

                   Gm                C                    Caug
e---5-5h6p5------------------10------8------6-----5-----3----
B-------------9-6--------------------------------------------
G------------------7----7s10----10s9----9s7---7s5---5s3------
D------------------------------------------------------------
A------------------------------------------------------------
E------------------------------------------------------------

    F                                   Dm
Recibir tu llamada fue una autentica sorpresa
         Gm
Cuando estabas olvidado
        Bb            C  C7
Me hizo bien saber de ti
   F                               Dm
Llegaron instantáneamente tantos recuerdos
       Gm                     Bb       C
Fueron bellos esos días hasta que te perdí

PRECORO:

Dm                       C9
   Que como me va preguntaste
            Gm
No pude ocultarte
        G7                                          C    C7
Que a pesar de lo que sucedió aún sigues siendo especial

CORO:

F                    Dm
El me ha dado tanto amor
             Gm
Su forma de amar
           Bb     C    C7
Me hace sentir querida
 F                 Dm
Con sus besos reavivó
               Gm
La llama del amor
    Bb             C
Cuando ya no encendía

PUENTE:
         Dm                   Gm
Me dio valor para seguir respirando sin tu amor
            C9        Cmaj7         F
Me ha dado todo y nuevamente soy feliz
            Dm          D7         Gm
Pero es muy triste conocer la realidad
          Bb              C
Porque aunque le llegue amar
C7         F
El no eres tú

SOLO:

F                    Dm                          Gm
e--6-6-6-6--8--6-3-3-6-1---I------------------5-----6-8-------
B--5-5-5-5--10-5-5-5-5-3---I------5---6---8-----6s8-----8bb---
G--------------------------I--5h7---7---7---7-----------------
D--------------------------I----------------------------------
A--------------------------I----------------------------------
E--------------------------I----------------------------------

                    C                                  Dm
         No  eeeres tú?
e-------8----------------I-----10s8-8-----------------------
B--8s10---10-6h8p6--5~---I------------10-10-8---------------
G------------------------I--10----------------10-9--5-5s7---
D------------------------I----------------------------------
A------------------------I----------------------------------
E------------------------I----------------------------------

PRECORO:

Dm                       C9
   Que como me va preguntaste
            Gm
No pude ocultarte
        G7                                          C    C7
Que a pesar de lo que sucedió aún sigues siendo especial

CORO:

F                    Dm
El me ha dado tanto amor
             Gm
Su forma de amar
           Bb     C    C7
Me hace sentir querida

F                 Dm
No, no te puedo negar
                Gm
Que no me falta nada
          Bb            C
desde que él llego a mi vida

PUENTE:
         Dm                   Gm
Me dio valor para seguir respirando sin tu amor
            C9        Cmaj7         F
Me ha dado todo y nuevamente soy feliz
            Dm          D7         Gm
Pero es muy triste conocer la realidad
          Bb              C
Porque aunque le llegue amar
C7         F
El no eres tú
                                                Dm
                                          Oh oh oooh,
e---15-15-15-15s13-13-13-13s10-10-10-10s-8--8--8-----
B---15-15-15-15s13-13-13-13s10-10-10-10s-10-10-10----
G----------------------------------------------------
D----------------------------------------------------
A----------------------------------------------------
E----------------------------------------------------


        Gm                           C    C7         F
no eres tuuuuuuú?,                        él no eres túuuuuu?
e--5-5-5-----8----5--6-----5h6p5--------------5---------
B--6-6-6--10----6----8-----------8-6-5--------6-8-6-6---
G------------------------5--------------------5-----5---
D-------------------------------------------------------
A-------------------------------------------------------
E-------------------------------------------------------


FIN

DIAGRAMA DEL Caug DEL INTRO. LA CUERDA
DE ARRIBA ES LA SEXTA Y LA DE ABAJO: LA PRIMERA.
LA ?S? SIGNIFICA SUENA Y LA ?X? NO SUENA.

La verdad este tono suena bien escuchen el audio,
presten atención y lo sabrán. Ok??

      Caug
  6   5   4   3
|---|---|---|---|X
|---|---|---|---|X
|-4-|---|---|---|S
|---|-2-|---|---|S
|---|-3-|---|---|S
|---|---|-1-|---|S

            
            
Suggest correction
Creating personal tab
Creating personal tab
You can edit any tab online and save it as your Personal.

You can edit, replace or remove any tab part or add personal notes – all changes will be seen only by you.

Personal tabs can be accessed anytime from any device, even offline.
Learn more »
Give kudos to tab author, rate the tab!
1 2 3 4 5
comments
print report bad tab
guest
Wanna post a correction for this tab? Suggest correction