Oops, an error
Loading. Please wait.

Yo Soy Mi País tab

22 views 1 this week
no commentswrite comment
1 2 3 4 5
3 more votes to show rating
add to favorites
×
Save as Personal and add changes to this tab that will be seen only by you. Learn more ›
×
You can save this tab as Personal to edit and correct it or add notes. All changes will be seen only by you. Learn more »
launch autoscroll
font size
0
reset
how to read this tab
guitar tuner
edit
Autoscroll
slow
fast
+/-
esc
set tempo
stop
Hola gente de  !!

Bueno, acá les dejo el intro y el solo de este temazo de los huayras.

Lo saqué con mucho esfuerzo, espero que lo disfruten tanto como yo.


Guitarra 1: Arpegiado.

         Dm                                               C

e|--------0---0-s-1--------0---0-s-1--------0---0-s-1--------0----|
B|------3---3------------3---3------------3---3------------1---1--|
G|----2----------------2----------------2----------------0-------0|
D|--0----------------0----------------0---------------------------|
A|-----------------------------------------------------3----------|
E|----------------------------------------------------------------|


         Dm           C

e|--------0---0-s-1---0-----|
B|------3---3---------1-----|
G|----2---------------0-----|
D|--0-----------------2-----|
A|--------------------3-----|
E|--------------------x-----|


Guitarra 2: Punteo.

         Dm                                      C

e|------------------------------------------------------|
B|------------------------------------------------------|
G|--------------------------2---------------------------|
D|---5-s-7------5-s-3--5--------3-s-2-----0>>>----------|
A|-----------------------------------------------3>>>---|
E|------------------------------------------------------|


Acá termina lo que sería el intro, y arranca la parte cantada con los

acordes que dejé antes...


Solo:

Si se van a animar a sacar el solo, les recomiendo escucharlo

bien al tema, y traten de darle la "onda" característica del

guitarrista de los huayra (***arranca con un golpe tipo charango,

utilizando los dedos anular A, mayor M e índice I, respectivamente,

rasgamos las 3 primeras cuerdas, bastante rápido, en forma

descendente respetando el orden de los dedos A - M - I)


     ***                      (rápido)
e|----10-----------------8-----8-s-10-----------------|
B|----10---10--8--6-----10---10----------11--10--11---|
G|----10---10--9--7----------------------12--11--12---|
D|----------------------------------------------------|
A|----------------------------------------------------|
E|----------------------------------------------------|


                            (rápido)
e|--10---9--12---9------------------------------------|
B|--11--10--10--10--10---8--8-s-10---6--5--6----------|
G|------------------10---9--9--------7--6--7----------|
D|----------------------------------------------------|
A|----------------------------------------------------|
E|----------------------------------------------------|


e|----s--8----8-----------------10--12--10---9--10----|
B|----s-10---10----11--10--11---12--12--12--10--12----|
G|-----------------12--11--12-------------------------|
D|----------------------------------------------------|
A|----------------------------------------------------|
E|----------------------------------------------------|


e|----10--12--13--12--10--9--7--9--10--------------|
B|-10----------------------------------10----------|
G|-----------------------------------------10------|
D|----------------------------------------------12-|
A|-------------------------------------------------|
E|-------------------------------------------------|


bueno,es lo mejor que lo pude sacar...Cualquier cosita, consulta,

quejas, lo que sea, mauro_kpo_2@


Disfruten y CLASIFIQUEN a su criterio  ;)

            
            
Suggest correction
Creating personal tab
Creating personal tab
You can edit any tab online and save it as your Personal.

You can edit, replace or remove any tab part or add personal notes – all changes will be seen only by you.

Personal tabs can be accessed anytime from any device, even offline.
Learn more »
Give kudos to tab author, rate the tab!
1 2 3 4 5
comments
print report bad tab
guest
Wanna post a correction for this tab? Suggest correction