Oops, an error
Loading. Please wait.

Te Escribo Desde El Sur tab

85 views 1 this week
no commentswrite comment
1 2 3 4 5
3 more votes to show rating
add to favorites
×
Save as Personal and add changes to this tab that will be seen only by you. Learn more ›
×
You can save this tab as Personal to edit and correct it or add notes. All changes will be seen only by you. Learn more »
launch autoscroll
font size
0
reset
how to read this tab
guitar tuner
edit
Autoscroll
slow
fast
+/-
esc
set tempo
stop
Intro:
   MIm                       RE
e|-7-----7-----8-10-8-7----7-10-----10----7-10-8-7----|
B|-----0-----0----------10--------0-----0----------10-|
G|---0-----0--------------------0-----0---------------|
D|----------------------------0-----------------------|
A|----------------------------------------------------|
E|-0--------------------------------------------------|
                              Rio gallegos, Pcia de Santa Cruz

      DO                                         SI
e|-8-----8------------7-------7--|
B|---8-----8---10-8-7---7-----7--|
G|-----9-----9------------8---8--|
D|--------------------------9-9--|
A|----------------------------9--|
E|-8------------------7-------7--|
       24 de diciembre


MIm                      RE
  Sabes el sol esta tan alto
                  DO
casi  es la medianoche
              SI
eso pasa en verano

MIm                      RE
  Tengo cerca la cordillera
                DO
por donde la bandera
              SI          MIm
flamea con su sol con su sol

Estribillo:
MIm                      SOL
  Y ante mis hijos tengo hoy
                RE
una carta donde tu
                   DO               SI
 me pegunta como estoy aquí en el sur

MIm                 SOL
  Y yo te digo corazón
                      RE
que la patria es como tu
                  DO                           SI  MIm
como mama como papa y la defiendo aquí en el sur

   MIm             SOL                  RE
e|-7-8-10-8-7----7-10----10-------------10---------------------|
B|-8-8--8-8-8-10---12-12-12-13-12-10-12-10-10-12-13-12-10-9-10-|
G|-9---------------12-12----12-12-12-12-11-11-11-11-11-11------|
D|-9---------------12-------------------12---------------------|
A|-------------------------------------------------------------|
E|-------------------------------------------------------------|

   DO                 SI
e|-8------------------7-|
B|-8-8-10-12-10-8-7-8-7-|
G|-9-9--9--9--9-9-----8-|
D|----------------------|x2
A|----------------------|
E|-8------------------7-|

   MIm
e|-12-10-----------------12-10----------------12-|
B|-12-10-12-10----10-12--12-10-12-10----10-12-12-|
G|-------------12--------------------12----------|
D|-----------------------------------------------|
A|-----------------------------------------------|
E|-----------------------------------------------|

NOTA: este punteo va acompañado del recitado de abajo..

(recitado)
Y te escribo, con todos lo muchachos salimos de campaña
por grandes cañadones por lagos y montañas
y en medio de los bosques de lengas y araucarias
temprano de mañana cuando el sol apenitas su cresta asomaba
con el canto de aurora elevamos al cielo nuestra celeste y blanca
y no puedo decirte en verdad lo que siento
porque para contarte me faltan las palabras
solo se que dios puso ante mis ojos este largo camino
y que estoy orgulloso pero muy orgulloso de ser argentino

Estribillo

Termina con: MIm  SOL  RE  MIm
              LA  lala LA  LA

----------------------------------------------------------------

Bahia Blanca

                                             _________Aníbal#87

            
            
Suggest correction
Creating personal tab
Creating personal tab
You can edit any tab online and save it as your Personal.

You can edit, replace or remove any tab part or add personal notes – all changes will be seen only by you.

Personal tabs can be accessed anytime from any device, even offline.
Learn more »
Give kudos to tab author, rate the tab!
1 2 3 4 5
comments
print report bad tab
guest
Wanna post a correction for this tab? Suggest correction