Oops, an error
Loading. Please wait.

Rompe Cantarito tab

39 views 1 this week
no commentswrite comment
1 2 3 4 5
3 more votes to show rating
add to favorites
×
Save as Personal and add changes to this tab that will be seen only by you. Learn more ›
×
You can save this tab as Personal to edit and correct it or add notes. All changes will be seen only by you. Learn more »
launch autoscroll
font size
0
reset
how to read this tab
guitar tuner
edit
Autoscroll
slow
fast
+/-
esc
set tempo
stop
INTRO:
     E  S S    S E  S    E.  S    Q       Q         E  S S
E||--3--5-3-|--0-0----|--------|-------|-------||----------|
B||---------|-------3-|--0-----|-------|-------||--------0-|
G||---------|---------|------2-|--0----|-------||*-----0---|
D||---------|---------|--------|-------|-------||*--0------|
A||---------|---------|--------|-------|-------||----------|
E||---------|---------|--------|-------|-------||----------|


  S E  S    S E  S    E.  S    E.  S    Q       Q
---------|---------|--------|--------|-------|--------||
--3-1--0-|----0--1-|--3---1-|--0-----|-------|--------||
---------|--2------|--------|------2-|--0----|-------*||
---------|---------|--------|--------|-------|-------*||
---------|---------|--------|--------|-------|--------||
---------|---------|--------|--------|-------|--------||


Leyenda
-------
W - blanca
H - redonda
Q - negra
E - corchea
S - semicorchea

. - puntillo


G                      C            G
Palquiceñito he nacido rompe cantarito
                         D7          G
||: Me llamaba mi vecina vieja miserable :||

INTRO:

G                        C             G
Tenia una pata mas larga otra mas pequeña
                       D7             G
||: Al caminar parecia que se le hundia  :||


C             G   C            G
Lindo Palquiceno  rompe cantarito
                               D7              G
||: Las flores quieren besarme y el rio me envidia  :||


INTRO:
G                         C            G
Tener una hija tan linda, vieja condenada
                                  D7            G
||: Donde habian visto en amores, sapo parir flores :||


INTRO:
G                     C               G
Quien iba imaginarse, que esta rata fea
                               D7             G
||: Pudo haber sido mi suegra, novia de mandinga :||

C             G   C            G
Lindo Palquiceno  rompe cantarito
                               D7              G
||: Las flores quieren besarme y el rio me envidia  :|| 4v.

            
            
Suggest correction
Creating personal tab
Creating personal tab
You can edit any tab online and save it as your Personal.

You can edit, replace or remove any tab part or add personal notes – all changes will be seen only by you.

Personal tabs can be accessed anytime from any device, even offline.
Learn more »
Give kudos to tab author, rate the tab!
1 2 3 4 5
comments
print report bad tab
guest
Wanna post a correction for this tab? Suggest correction