Oops, an error
Loading. Please wait.

Después Vemos bass

19 views 1 this week
no commentswrite comment
1 2 3 4 5
3 more votes to show rating
add to favorites
×
Save as Personal and add changes to this tab that will be seen only by you. Learn more ›
×
You can save this tab as Personal to edit and correct it or add notes. All changes will be seen only by you. Learn more »
launch autoscroll
font size
0
reset
guitar tuner
edit
Autoscroll
slow
fast
+/-
esc
set tempo
stop
Ke onda como estan! ps esta rola me la pidieron los de la banda
para tocarla, no la habia escuchado pero esta muy buena y
sencilla ps espero les sirva, creo que las notas estan muy
acertadas pero si tienen alguna duda ahi me envian un correo,
brrr...

***************************************************************

afinación estandar: EADG

el intro comienza con guitarra pero pueden acompañar
en el bajo con esto

*intro*
g|------------------------------13-13-11-11-10-10-------|
d|------------------------------------------------11-11-|
a|------------------------------------------------------|
e|-9-9-9-9-9-9-9-11-8-8-8-8-8-8-------------------------|

*verso*
00:12
g|----------------------------------------------------------------|
d|----------------------------------------------------------------|
a|----------------------8/9-8-------------------------------------|
e|-9-9-9-9-9--9-9--9-9--------9-8--8-8-8-8-8--8-8--8-8--0-6-6/8-8-|

g|--------------------------------------------------------------|
d|--------------------------------------------------------------|
a|----------------------8/9-8-----------------------------------|
e|-9-9-9-9-9--9-9--9-9--------9-8--8-8-8-8-8--8-8--8-8--8-8-8-8-|

break (x2)
g|-----------------------------|-----------------------------|
d|-----------------------------|-----------------------------|
a|-----------------------------|-----------------------------|
e|-9--9-9-9-9--9-9/11-11-11-11-|-8--8-8-8-8--8-8/11-11-11-11-|

g|-------------------------------|----------------------|
d|-------------------------------|----------------------|
a|-------------------------------|----------------------|
e|-7-7-7-7-7-7-7-7-7-7/9-9-9-9-9-|-6-6-6-6-6-6-6-6-6666-|

*verso* (x2)
*break*
*verso* (x2)
*break*

final
g|-----------|
d|-----------|
a|-----------|
e|-/9-----9*-|

            
            
Suggest correction
Creating personal tab
Creating personal tab
You can edit any tab online and save it as your Personal.

You can edit, replace or remove any tab part or add personal notes – all changes will be seen only by you.

Personal tabs can be accessed anytime from any device, even offline.
Learn more »
Give kudos to tab author, rate the tab!
1 2 3 4 5
comments
print report bad tab
guest
Wanna post a correction for this tab? Suggest correction