Oops, an error
Loading. Please wait.

Estoy Harto De Tí tab

version 2
version 2

Whole song

40 views 3 this week
no commentswrite comment
1 2 3 4 5
3 more votes to show rating
add to favorites
×
Save as Personal and add changes to this tab that will be seen only by you. Learn more ›
×
You can save this tab as Personal to edit and correct it or add notes. All changes will be seen only by you. Learn more »
launch autoscroll
font size
0
reset
how to read this tab
guitar tuner
edit
Autoscroll
slow
fast
+/-
esc
set tempo
stop
No es perfecto pero espero k les guste
En realidad no es una canción muy difícil solo
lleva 2 acordes pero por cualkier kosa escríbanme
Superman_00_3@

Intro
Guitarra (acustica)
G,D
Mientras la guitarra  1 toca esto,
e-----7-----7-----7-----|
b--5-----5-----5--------|
g-----------------------|X6
d-----------------------|
a-----------------------|
E-----------------------|

la guitarra 2 ase esto
e-------7-7/9-9-9-9-7-7---------------------
b----5------------------7h5-7-7----5---7h5--
g--------------------------------6----------
d-------------------------------------------
a-------------------------------------------
e-------------------------------------------

--------------------7---------7--|
--7-7----5---5-5-5----5----5-----|
-------6-------------------------|
---------------------------------|  X4
---------------------------------|
---------------------------------|


Guitarra  1
G,D (con el distorcion)

G                   D
esto ya lo entendi
                           G
por que no puedo ya cambiar
                                            D
si una ves te perdi (y nunca supimos perdonar)
                                                 G
por que me aferro a rescatar ( nunca pudimos imaginar)
                                          D
algo que yo senti ( y yo nunca supe valorar)
                                                 G
y ya no puedo revivir(todo lo que tu hiciste por mi)
                                                D
tu ya no estas en mi ( y que por mi culpa salio mal)

quiero olvidarte.


esto ya lo entendi ( y ya nunca supe que decir)
por donde tenemos que empezar? (nunca pudimos imaginar)

si esto ya lo entendi (y que por mi culpa salio mal)
por donde tenemos que empezar!

yo ya no estoy en ti! (y ya nunca supe que decir)
por donde tenemos que empezar? (nunca pudimos imaginar)
si esto ya lo entendi (y que por mi culpa salio mal)

estoy harto de ti
por que tuvimos que cambiar?

final
e---2--3---2----|---2-------2-3---|
b------3-----3--|------3------3---|
g---2------2----|---2-------2-----|  esta parte va
d---------------|-----------------|  rasgeada
a---------------|-----------------|  escuchar PM
E---------------|-----------------|


Acordes
    G              D
e-----3-----|------2------|
b-----3-----|----------3--|
g-----------|------2------|
d-----------|-------------|
a--------2--|-------------|
E-----3-----|-------------|

Esta rola no tiene nada k ver con nosotros JULIETA
 pero se k te laten y pues ojala te guste
y k no se te olvide k te amo kon toda mi alma
amor  y a ti DIEGO PUNK  va we por k se
 k te laten tambiénYa saben cualkier pedo  con la rola
 superman_00_3@
Suggest correction
Creating personal tab
Creating personal tab
You can edit any tab online and save it as your Personal.

You can edit, replace or remove any tab part or add personal notes – all changes will be seen only by you.

Personal tabs can be accessed anytime from any device, even offline.
Learn more »
Give kudos to tab author, rate the tab!
1 2 3 4 5
comments
print report bad tab
guest
Wanna post a correction for this tab? Suggest correction